Oops, an error
Loading. Please wait.

There Goes My Love bass

1,730 views 1 this week
1 commentread comment
1 2 3 4 5
1 last vote to show rating
add to favorites
×
Save as Personal and add changes to this tab that will be seen only by you. Learn more ›
×
You can save this tab as Personal to edit and correct it or add notes. All changes will be seen only by you. Learn more »
launch autoscroll
font size
0
reset
guitar tuner
edit
Autoscroll
slow
fast
+/-
esc
set tempo
stop
Author
Difficulty
This is my version of the song There goes my love with The Blue Van, whom is a cool danish band.
Its a really easy song, with few varations and its easy to put a solo in.


Intro:

Guitar plays one time first then the bass comes in
(listen to the song to get the groove)


G------------------------------------------------------|
D------------------------------------------------------|
A------------------------------------------------------|
E-----8--8-8-8-7-6--6-6-6-6-3--6-3-6-7-8--8-8-8-8------|     x1

There comes a little break here, listen to the song to get it.


Verse 1

G------------------------------------------------------|
D------------------------------------------------------|
A------------------------------------------------------|
E-----8--8-8-8-7-6--6-6-6-6-3--6-3-6-7-8--8-8-8-8------|     x4


Chorus 1

G------------------------------------------------------|
D------------------------------------------------------|
A------------------------------------------------------|
E-----8--8-8-8-7-6--6-6-6-6-3--6-3-6-7-8--8-8-8-8------|     x4


A little break again


Verse 2

G------------------------------------------------------|
D------------------------------------------------------|
A------------------------------------------------------|
E-----8--8-8-8-7-6--6-6-6-6-3--6-3-6-7-8--8-8-8-8------|     x4


Chorus 2

G------------------------------------------------------|
D------------------------------------------------------|
A------------------------------------------------------|
E-----8--8-8-8-7-6--6-6-6-6-3--6-3-6-7-8--8-8-8-8------|     x4


A little break and then the guitar solo


Solo

(this goes a little fast)

G--------------------|
D--------------------|
A-----3-3------------|
E--------3-6     x15-|


Chorus 3

G------------------------------------------------------|
D------------------------------------------------------|
A------------------------------------------------------|
E-----8--8-8-8-7-6--6-6-6-6-3--6-3-6-7-8--8-8-8-8------|     x6


The End

            
            
Suggest correction
Creating personal tab
Creating personal tab
You can edit any tab online and save it as your Personal.

You can edit, replace or remove any tab part or add personal notes – all changes will be seen only by you.

Personal tabs can be accessed anytime from any device, even offline.
Learn more »
Give kudos to tab author, rate the tab!
1 2 3 4 5
comments
print report bad tab
1 comment total.
0 reply
Jocke1995 60 Aug 19, 2010 07:43 AM

Mangler lige det sidste.. Men det er til at lytte af. NICE!

guest
You may want to rate the tab now too:
select rating
Wanna post a correction for this tab? Suggest correction