Oops, an error
Loading. Please wait.

Jail House Rock bass

23,061 views 1 this week
1 commentread comment
1 2 3 4 5
x 4
add to favorites
×
Save as Personal and add changes to this tab that will be seen only by you. Learn more ›
×
You can save this tab as Personal to edit and correct it or add notes. All changes will be seen only by you. Learn more »
launch autoscroll
font size
0
reset
guitar tuner
edit
Autoscroll
slow
fast
+/-
esc
set tempo
stop
Author
Difficulty
-------------------------------------------------------------------------------
			     SONG NAME jail house rock - Band Name blues brothers
-------------------------------------------------------------------------------

Tabbed By : 
e-mail: 

Tuning:normal
first verse
G|---------------------------------------------------------------------------|
D|---------------------------------------------------------------------------|
A|---------------------------------------------------------------------------|
E|4h5--------------------------------4h5-------------------------------------|
  (1st line)                       (2nd line)                 
G|---------------------------------------------------------------------------|
D|---------------------------------------------------------------------------|
A|---------------------------------------------------------------------------|
E|4h5------------------------------4h5---------------------------------------|
  (3rd line)                       (4th line)
  chorus
G|------4-------------------7------------------------------------------------|
D|--4-7---------4-------6-9--------------------------------------------------|
A|5-----------4-7-----7------------------------------------------------------|
E|-----------5---------------------------------------------------------------|

play chorus every chorus and verse fore every verse by the way the chorus covera ALL  of the song


| /  slide up
| \  slide down
| h  hammer-on
| p  pull-off
| ~  vibrato
| +  harmonic
| x  Mute note

            
            
Suggest correction
Creating personal tab
Creating personal tab
You can edit any tab online and save it as your Personal.

You can edit, replace or remove any tab part or add personal notes – all changes will be seen only by you.

Personal tabs can be accessed anytime from any device, even offline.
Learn more »
comments
print report bad tab
1 comment total.
0 reply
boby9933 67 Dec 11, 2013 09:19 AM

First, great tab and thank's for it.

But for the verse i think it could be:

G|---------------------------------------------------------------------------|
D|---------------------------------------------------------------------------|
A|4h5------------------------------------4h5---------------------------------|
E|---------------------------------------------------------------------------|

G|---------------------------------------------------------------------------|
D|---------------------------------------------------------------------------|
A|---------------------------------------------------------------------------|
E|----9h10------------------------------------9h10---------------------------|

guest
You may want to rate the tab now too:
select rating
Wanna post a correction for this tab? Suggest correction