Oops, an error
Loading. Please wait.

Peter Gunn Theme intro tab

version 3
version 3

Whole song

Interactive

7,661 views 6 this week
2 commentsread comments
1 2 3 4 5
x 5
add to favorites
×
Save as Personal and add changes to this tab that will be seen only by you. Learn more ›
×
You can save this tab as Personal to edit and correct it or add notes. All changes will be seen only by you. Learn more »
launch autoscroll
font size
0
reset
how to read this tab
guitar tuner
edit
Autoscroll
slow
fast
+/-
esc
set tempo
stop
Author
Unregistered
play this throughout the song

e -------------------------
b -------------------------
g -------------------------
d -------------------------
a -----------------1-1-----
E -1-1--3-0-4-0------------


this is very basic but it saves u from sliding around the guitar.....
 if u have any problems .. email me on .. peteo_donnell@hotmail.com

also if u want to solo ...solo around the 12 fret in a- minor scale

--------------12-------14--------------------------
--------------12-------15--------------------------
--------------12-------14-------------------------- the scale is something like 
--------------12-------14-------------------------- this
--------------12-------15--------------------------
--------------12-------15--------------------------

            
            
Suggest correction
Creating personal tab
Creating personal tab
You can edit any tab online and save it as your Personal.

You can edit, replace or remove any tab part or add personal notes – all changes will be seen only by you.

Personal tabs can be accessed anytime from any device, even offline.
Learn more »
comments
print report bad tab
2 comments total.
+1 reply
jdixonfan 10 Jan 31, 2005 07:00 PM

its

0-0-2-0-3-0-5-4-

0 reply
Hoi Choi 36 Jun 16, 2009 11:08 PM

agree with above

guest
Wanna post a correction for this tab? Suggest correction