Oops, an error
Loading. Please wait.

Rawhide bass

version 1
version 1

Whole song

Interactive

12,340 views 18 this week
1 commentread comment
1 2 3 4 5
1 last vote to show rating
add to favorites
×
Save as Personal and add changes to this tab that will be seen only by you. Learn more ›
×
You can save this tab as Personal to edit and correct it or add notes. All changes will be seen only by you. Learn more »
launch autoscroll
font size
0
reset
guitar tuner
backing track
0:00
0:00
edit
Autoscroll
slow
fast
+/-
esc
set tempo
stop
 |       |       |       |        |       |       |       |        
|----------------0-------1-------|----------------0-------1-------|
|--------------------------------|--------------------------------|
|4-------------------------------|4-------------------------------|
|--------------------------------|--------------------------------|

 |       |       |       |        |       |       |       |        
|----------------0-------1-------|----------------0-------1-------|
|--------------------------------|--------------------------------|
|4-------------------------------|4-------------------------------|
|--------------------------------|--------------------------------|

 |       |       |       |        |       |       |       |        
|----------------0-------1-------|----------------0-------1-------|
|--------------------------------|--------------------------------|
|4-------------------------------|4-------------------------------|
|--------------------------------|--------------------------------|

 |       |       |       |        |       |       |       |        
|----------------0-------1-------|----------------0-------1-------|
|--------------------------------|--------------------------------|
|4-------------------------------|4-------------------------------|
|--------------------------------|--------------------------------|

 |       |       |       |        |       |       |       |        
|----------------0-------1-------|----------------0-------1-------|
|--------------------------------|--------------------------------|
|--------------------------------|4-------------------------------|
|--------------------------------|--------------------------------|

 |       |       |       |        |       |       |       |        
|----------------0-------1-------|----------------0-------1-------|
|--------------------------------|--------------------------------|
|4-------------------------------|4-------------------------------|
|--------------------------------|--------------------------------|

 |       |       |       |        |       |       |       |        
|----------------0-------1-------|----------------0-------1-------|
|--------------------------------|--------------------------------|
|4-------------------------------|4-------------------------------|
|--------------------------------|--------------------------------|

 |       |       |       |        |       |       |       |        
|------------------------1-------|----------------0-------1-------|
|----------------5---------------|--------------------------------|
|4-------------------------------|4-------------------------------|
|--------------------------------|--------------------------------|

 |       |       |       |        |       |       |       |        
|----------------0-------1-------|----------------0-------1-------|
|--------------------------------|--------------------------------|
|4-------------------------------|4-------------------------------|
|--------------------------------|--------------------------------|

 |       |       |       |        |       |       |       |        
|----------------0-------1-------|----------------3-------4-------|
|--------------------------------|--------------------------------|
|4-------------------------------|4-------------------------------|
|--------------------------------|--------------------------------|

 |       |       |       |        |       |       |       |        
|----------------3-------4-------|----------------3-------4-------|
|2-------------------------------|2-------------------------------|
|--------------------------------|--------------------------------|
|--------------------------------|--------------------------------|

 |       |       |       |        |       |       |       |        
|----------------3-------4-------|----------------0-------1-------|
|2-------------------------------|2-------------------------------|
|--------------------------------|--------------------------------|
|--------------------------------|--------------------------------|

 |       |       |       |        |       |       |       |        
|----------------0-------1-------|----------------1-------0-------|
|--------------------------------|--------------------------------|
|4-------------------------------|4-------------------------------|
|--------------------------------|--------------------------------|

 |       |       |       |        |       |       |       |        
|----------------4---------------|----------------6-------5-------|
|4-------------------------------|--------------------------------|
|--------------------------------|4-------------------------------|
|--------------------------------|--------------------------------|

 |       |       |       |        |       |       |       |        
|4---------------4---------------|2---------------2---------------|
|--------------------------------|--------------------------------|
|--------------------------------|--------------------------------|
|--------------------------------|--------------------------------|

 |       |       |       |        |       |       |       |        
|1-------------------------------|1---------------4-------5-------|
|----------------1---------------|--------------------------------|
|--------------------------------|--------------------------------|
|--------------------------------|--------------------------------|

 |       |       |       |        |       |       |       |        
|6---------------1---------------|6---------------1---------------|
|--------------------------------|--------------------------------|
|--------------------------------|--------------------------------|
|--------------------------------|--------------------------------|

 |       |       |       |        |       |       |       |        
|----------------4---------------|--------------------------------|
|4-------------------------------|--------------------------------|
|--------------------------------|4---------------4---------------|
|--------------------------------|--------------------------------|

 |       |       |       |        |       |       |       |        
|----------------4---------------|6---------------4---------------|
|4-------------------------------|--------------------------------|
|--------------------------------|--------------------------------|
|--------------------------------|--------------------------------|

 |       |       |       |        |       |       |       |        
|----------------0-------1-------|----------------0-------1-------|
|--------------------------------|--------------------------------|
|4-------------------------------|4-------------------------------|
|--------------------------------|--------------------------------|

 |       |       |       |        |       |       |       |        
|--------------------------------|1---------------1---------------|
|----------------2-------4-------|--------------------------------|
|4-------------------------------|--------------------------------|
|--------------------------------|--------------------------------|

 |       |       |       |        |       |       |       |        
|--------------------------------|1---------------1---------------|
|----------------2-------4-------|--------------------------------|
|4-------------------------------|--------------------------------|
|--------------------------------|--------------------------------|

 |       |       |       |        |       |       |       |        
|--------------------------------|1---------------1---------------|
|----------------2-------4-------|--------------------------------|
|4-------------------------------|--------------------------------|
|--------------------------------|--------------------------------|

 |       |       |       |        |       |       |       |        
|----------------0-------1-------|2---------------1---------------|
|--------------------------------|--------------------------------|
|4-------------------------------|--------------------------------|
|--------------------------------|--------------------------------|

 |       |       |       |        |       |       |       |        
|----------------0-------1-------|----------------0-------1-------|
|--------------------------------|--------------------------------|
|4-------------------------------|4-------------------------------|
|--------------------------------|--------------------------------|

 |       |       |       |        |       |       |       |        
|----------------1-------2-------|----------------1-------2-------|
|--------------------------------|0-------------------------------|
|4-------------------------------|--------------------------------|
|--------------------------------|--------------------------------|

 |       |       |       |        |       |       |       |        
|----------------1-------2-------|----------------1-------2-------|
|0-------------------------------|0-------------------------------|
|--------------------------------|--------------------------------|
|--------------------------------|--------------------------------|

 |       |       |       |        |       |       |       |        
|----------------1-------2-------|----------------1-------2-------|
|0-------------------------------|0-------------------------------|
|--------------------------------|--------------------------------|
|--------------------------------|--------------------------------|

 |       |       |       |        |       |       |       |        
|----------------1-------2-------|----------------1-------2-------|
|0-------------------------------|0-------------------------------|
|--------------------------------|--------------------------------|
|--------------------------------|--------------------------------|

 |       |       |       |        |       |       |       |        
|----------------4-------5-------|----------------4-------5-------|
|0-------------------------------|3-------------------------------|
|--------------------------------|--------------------------------|
|--------------------------------|--------------------------------|

 |       |       |       |        |       |       |       |        
|----------------4-------5-------|----------------4-------5-------|
|3-------------------------------|3-------------------------------|
|--------------------------------|--------------------------------|
|--------------------------------|--------------------------------|

 |       |       |       |        |       |       |       |        
|----------------1-------2-------|----------------1-------2-------|
|3-------------------------------|0-------------------------------|
|--------------------------------|--------------------------------|
|--------------------------------|--------------------------------|

 |       |       |       |        |       |       |       |        
|----------------2-------1-------|0---------------5---------------|
|0-------------------------------|--------------------------------|
|--------------------------------|--------------------------------|
|--------------------------------|--------------------------------|

 |       |       |       |        |       |       |       |        
|----------------7-------6-------|5---------------5---------------|
|0-------------------------------|--------------------------------|
|--------------------------------|--------------------------------|
|--------------------------------|--------------------------------|

 |       |       |       |        |       |       |       |        
|3---------------3---------------|2-------------------------------|
|--------------------------------|----------------2---------------|
|--------------------------------|--------------------------------|
|--------------------------------|--------------------------------|

 |       |       |       |        |       |       |       |        
|2---------------5-------6-------|7---------------2---------------|
|--------------------------------|--------------------------------|
|--------------------------------|--------------------------------|
|--------------------------------|--------------------------------|

 |       |       |       |        |       |       |       |        
|7---------------2---------------|0---------------5---------------|
|--------------------------------|--------------------------------|
|--------------------------------|--------------------------------|
|--------------------------------|--------------------------------|

 |       |       |       |        |       |       |       |        
|--------------------------------|0---------------5---------------|
|----------------0---------------|--------------------------------|
|--------------------------------|--------------------------------|
|--------------------------------|--------------------------------|

 |       |       |       |        |       |       |       |        
|----------------5---------------|----------------1-------2-------|
|--------------------------------|0-------------------------------|
|--------------------------------|--------------------------------|
|--------------------------------|--------------------------------|

 |       |       |       |        |       |       |       |        
|----------------1-------2-------|------------------------0-------|
|0-------------------------------|0---------------3---------------|
|--------------------------------|--------------------------------|
|--------------------------------|--------------------------------|

 |       |       |       |        |       |       |       |        
|2---------------2---------------|------------------------0-------|
|--------------------------------|0---------------3---------------|
|--------------------------------|--------------------------------|
|--------------------------------|--------------------------------|

 |       |       |       |        |       |       |       |        
|2---------------2---------------|------------------------0-------|
|--------------------------------|0---------------3---------------|
|--------------------------------|--------------------------------|
|--------------------------------|--------------------------------|

 |       |       |       |        |       |       |       |        
|2---------------2---------------|----------------1-------2-------|
|--------------------------------|0-------------------------------|
|--------------------------------|--------------------------------|
|--------------------------------|--------------------------------|

 |       |       |       |        |       |       |       |        
|3---------------2---------------|----------------1-------2-------|
|--------------------------------|0-------------------------------|
|--------------------------------|--------------------------------|
|--------------------------------|--------------------------------|

 |       |       |       |        |       |       |       |        
|----------------1-------2-------|----------------1-------2-------|
|0-------------------------------|0-------------------------------|
|--------------------------------|--------------------------------|
|--------------------------------|--------------------------------|

 |       |       |       |        |       |       |       |        
|----------------1-------2-------|----------------1-------2-------|
|0-------------------------------|--------------------------------|
|--------------------------------|--------------------------------|
|--------------------------------|--------------------------------|

 |       |       |       |        |       |       |       |        
|----------------1-------2-------|----------------1-------2-------|
|0-------------------------------|0-------------------------------|
|--------------------------------|--------------------------------|
|--------------------------------|--------------------------------|

 |       |       |       |        |       |       |       |        
|----------------1-------2-------|----------------1-------2-------|
|0-------------------------------|0-------------------------------|
|--------------------------------|--------------------------------|
|--------------------------------|--------------------------------|

 |       |       |       |        |       |       |       |        
|----------------1-------2-------|----------------1-------2-------|
|0-------------------------------|0-------------------------------|
|--------------------------------|--------------------------------|
|--------------------------------|--------------------------------|

 |       |       |       |        |       |       |       |        
|----------------1-------2-------|----------------1-------2-------|
|0-------------------------------|--------------------------------|
|--------------------------------|--------------------------------|
|--------------------------------|--------------------------------|

 |       |       |       |        |       |       |       |        
|----------------1-------2-------|--------------------------------|
|0-------------------------------|0-------------------------------|
|--------------------------------|--------------------------------|
|--------------------------------|--------------------------------|

            
            
Suggest correction
Creating personal tab
Creating personal tab
You can edit any tab online and save it as your Personal.

You can edit, replace or remove any tab part or add personal notes – all changes will be seen only by you.

Personal tabs can be accessed anytime from any device, even offline.
Learn more »
Give kudos to tab author, rate the tab!
1 2 3 4 5
comments
print report bad tab
1 comment total.
0 reply
Kobrakai 121 Sep 28, 2005 02:59 AM

there is a far easier way to play.
i start with
-----------------------
-----------------------
---6-7---6-7-----------
-5-----5---------------

and

-----------------------
-----------------------
---9-10---9-10---------
-8------8--------------

then up to

-----------------------
-----------------------
---7-8---7-8-----------
-6-----6---------------

followed by

-----------------------
-----------------------
---10-11---10-11-------
-9-------9-------------

i can't be bothered to write out the bridge bits but try the PowerTab of it. it's fingering is excellent.

guest
You may want to rate the tab now too:
select rating
Wanna post a correction for this tab? Suggest correction