Oops, an error
Loading. Please wait.

Soul Man Bass

version 1
version 1

Whole song

Interactive

42,019 views 9 this week
8 commentsread comments
1 2 3 4 5
x 6
add to favorites
launch autoscroll
font size
0
reset
guitar tuner
backing track
0:00
0:00
×
Best way to learn
"Soul Man"
Autoscroll
slow
fast
+/-
esc
set tempo
stop
Soul Man - Blues Brothers
                                                      
[intro]                 [verse riff]               
G|---------------------|--------------|--------------------------------------------------------|
D|---------------------|--------------|--------------------------------------------------------|
A|7---75---5-----------|7-7-----------|77777777555555557777777777777777777777775555555577777777|
E|-------------5---7---|---9975-5-7-9-|--------------------------------------------------------|

 chorus end
G|---------|
D|---------|
A|----/7---|
E|5-9----7-|

there's a part at about 2 minutes that I couldn't get

[Solo]
G|-----------------------------------------------------|
D|-----------------------------------------------------|
A|9---97--------------999999977777777-------------/9---|
E|---------5--7-7-9-9----------------555555557-11----9-|

  [outro riff]   end note
G|--------------|------|
D|4-4-----------|4-----|
A|---6642-2-4-6-|------|
E|--------------|2-----|



************************************

| /  Slide up

************************************
Suggest correction
comments
print report bad tab
8 comments total. Showing first comments.
0 reply
Christato 631 Jul 08, 2007 05:41 PM

Very great job!

0 reply
pretty_bass 10 Jul 23, 2007 06:32 PM

I've always hated choking the bass

main riff
G|----------------------|
D|----------------------|
A|-7---7-4----------4-7-|
E|---------7-5-5--7-----|

makes it more of a "box", too

0 reply
pretty_bass 10 Jul 23, 2007 06:34 PM

oh, and I am aware that this is basically the same thing except with the 9th frets on the E string changed to 4th frets on the A string

that's the point =]

guest
You may want to rate the tab now too:
select rating
Wanna post a correction for this tab? Suggest correction