Oops, an error
Loading. Please wait.

Soul Man bass

version 2
version 2

Whole song

Interactive

29,495 views 18 this week
2 commentsread comments
1 2 3 4 5
x 13
add to favorites
×
Save as Personal and add changes to this tab that will be seen only by you. Learn more ›
×
You can save this tab as Personal to edit and correct it or add notes. All changes will be seen only by you. Learn more »
launch autoscroll
font size
0
reset
guitar tuner
backing track
0:00
0:00
edit
Autoscroll
slow
fast
+/-
esc
set tempo
stop
Author
G|------------------------|
D|------------------------|
A|--7---7-5---------------|
E|--------------3----5--7-|

G|--------------------------|
D|--------------------------|
A|---7--7-4--4----------4-7-| x12
E|-------------7--5-5-7-----|

G|-------------------------------------------------------------------|
D|-------------------------------------------------------------------|
A|---7-7-7-7-7-7-7-7-5-5-5-5-5-5-5-5-7-7-7-7-7-7-7-7-7-7-7-7-7-7-7-7-|
E|-------------------------------------------------------------------|

G|---------------------------------------------------|
D|---------------------------------------------------|
A|---7-7-7-7-7-7-7-7-5-5-5-5-5-5-5-5-7-7-7-7-7-7-7-7-|
E|---------------------------------------------------|

G|-----------|
D|-----------|
A|----4--7---|
E|-5-------7-|

G|--------------------------|
D|--------------------------|
A|---7--7-4--4----------4-7-| x8
E|-------------7--5-5-7-----|

G|-------------------------------------------------------------------|
D|-------------------------------------------------------------------|
A|---7-7-7-7-7-7-7-7-5-5-5-5-5-5-5-5-7-7-7-7-7-7-7-7-7-7-7-7-7-7-7-7-|
E|-------------------------------------------------------------------|

G|---------------------------------------------------|
D|---------------------------------------------------|
A|---7-7-7-7-7-7-7-7-5-5-5-5-5-5-5-5-7-7-7-7-7-7-7-7-|
E|---------------------------------------------------|

G|-----------|
D|-----------|
A|----4--7---|
E|-5-------7-|

G|--------------------------|
D|--------------------------|
A|---7--7-4--4----------4-7-| x8
E|-------------7--5-5-7-----|

G|-------------------------------------------------------------------|
D|-------------------------------------------------------------------|
A|---7-7-7-7-7-7-7-7-5-5-5-5-5-5-7-5-7-7-7-7-7-7-7-7-7-7-7-7-7-7-7-7-|
E|-------------------------------------------------------------------|

G|---------------------------------------------------|
D|---------------------------------------------------|
A|---7-7-7-7-7-7-7-7-5-5-5-5-5-5-5-5-7-7-7-7-7-7-7-7-|
E|---------------------------------------------------|

G|-----------|
D|-----------|
A|----4--7---|
E|-5-------7-|

G|------------------------------------------------|
D|------------------------------------------------|
A|--3--------------------5----5---5----7----7---7-|
E|-------3---3-0--1-2-3-----3---3---5-----5---5---|

G|---------------------------------|
D|---------------------------------|
A|---------------------------------|
E|-7-7-7-7-7-7-7-7-8-8-8-8-8-8-8-8-|

G|---------------------|
D|---------------------|
A|--8---8-6------------|
E|------------4---6--8-|

G|--------------------------------------------------|
D|--------------------------------------------------|
A|--8-8-8-8-8-8-8-8-6-6-6-6-6-6-6-6-----------------|
E|----------------------------------4-4-4-4-4-4-4-4-|

G|-----------|
D|-----------|
A|----5--8---|
E|-6-------8-|

G|--------------------------|
D|--------------------------|
A|---8--8-5--5----------5-8-| x12
E|-------------8--6-6-8-----|

G|-------------------------------------------------------------------------|
D|-------------------------------------------------------------------------|
A|-8-----------------------------------------------------------------------| 
E|-----1-1-1-1-1-1-1-1-1-1-1-1-1-1-1-1-1-1-1-1-1-1-1-1-1-1-1-1-1-1-1-1-1-1-|


            
            
Suggest correction
Creating personal tab
Creating personal tab
You can edit any tab online and save it as your Personal.

You can edit, replace or remove any tab part or add personal notes – all changes will be seen only by you.

Personal tabs can be accessed anytime from any device, even offline.
Learn more »
comments
print report bad tab
2 comments total.
0 reply
The1bassist06 50 Aug 02, 2011 01:45 PM

100% Perfect

0 reply
aarontarach 10 Aug 27, 2017 12:06 PM

:):):):):):):):):):):)

guest
You may want to rate the tab now too:
select rating
Wanna post a correction for this tab? Suggest correction