Oops, an error
Loading. Please wait.

Marblehead Johnson tab

version 2
version 2

Whole song

2,669 views 12 this week
no commentswrite comment
1 2 3 4 5
x 3
add to favorites
×
Save as Personal and add changes to this tab that will be seen only by you. Learn more ›
×
You can save this tab as Personal to edit and correct it or add notes. All changes will be seen only by you. Learn more »
launch autoscroll
font size
0
reset
how to read this tab
guitar tuner
edit
Autoscroll
slow
fast
+/-
esc
set tempo
stop
Author
Difficulty
Riff used during most of song:                  After riff x3 play this and
                                                Start verse (also end bit)

E-------------------------            ------------------------------|
B-------------------------            ------------------------------|
G--------------0----------------------------------------------------|Repeat till orgasm...
-------0------------------------------------------------------------|
D-------0h2--------0h2p0--            --0h2----0h2p0-2-0------------|
A-------------------------            -------------------2-0--------|
E---0---------------------            -----------------------3h5--0-|


Em                    G          A
Tonight I'm wound tighter than a watchspring
C                             B7      Em
Tonight you owe my patience quite a debt
Em                                       G      A
Toniiiiiihihihight we're not gonna solve anything
C                              B7       Em
I might say something that we both regret

Chorus:-
G(single strum)                          C
And now the pressures on, the heat is rising
Em                         G            A
The time has come to stop apologising
C
'cos when the skies are clear
        B7(single strum)                Riff
The threat of rain is always here with you

Verse
Tonight the geese are flying
And everything you say is a call to arms
Tonight there's something in the air
Don't come too close and you'll come to no harm

(chorus)
G                                       C
And now the pressure's on the heat is rising
Em                        G        A
The time has come to stop apologising
C
With all thats gone before
B7
My motive's never felt so pure
Em
And now my heart's beset
G                       A or C?
With 28 carat gold regrets
C
And when the skies go clear
B7
The threat of rain is always here with you

Solo (simplified version)

E-------------------|-----------------|----------------|-----------------|
B-------------------|-----------------|----------------|------1----------|
G--------0----------|------2----------|-----4----------|-----------------|
D---0h2-----4 times-|-0h2-----4 times-|-0h2----4 times-|-0h2------4 times|
A-------------------|-----------------|----------------|-----------------|
E-------------------|-----------------|----------------|-----------------|
        with you...     with you...     with you...             etc..

E------------|
B------------|
G--------0---|
D--0h2-------|
A------------|
E------------|

            
            
Suggest correction
Creating personal tab
Creating personal tab
You can edit any tab online and save it as your Personal.

You can edit, replace or remove any tab part or add personal notes – all changes will be seen only by you.

Personal tabs can be accessed anytime from any device, even offline.
Learn more »
Give kudos to tab author, rate the tab!
1 2 3 4 5
comments
print report bad tab
guest
You may want to rate the tab now too:
select rating
Wanna post a correction for this tab? Suggest correction