Oops, an error
Loading. Please wait.

Sleazy Bed Track tab

1,807 views 27 this week
1 commentread comment
1 2 3 4 5
x 3
add to favorites
×
Save as Personal and add changes to this tab that will be seen only by you. Learn more ›
×
You can save this tab as Personal to edit and correct it or add notes. All changes will be seen only by you. Learn more »
launch autoscroll
font size
0
reset
how to read this tab
guitar tuner
edit
Autoscroll
slow
fast
+/-
esc
set tempo
stop
Author
Difficulty
-------------------------------------------------------------------------------
                             SONG NAME - Band Name
-------------------------------------------------------------------------------
Tabbed by: Alex Large
E-mail: alexandthat@gmail.com

Tuning: standard

Based on this video https://www.youtube.com/watch?v=yQF8QkjGuik&index=3&list=WL

Intro / verses

e|-7----7----7----5----------------------7-----------------------------------|
B|-8----7----8----5----8---8-h--10--8----7---7-------------------------------|
G|-9----8----9----6----9---9----9---9----8---7-------------------------------|
D|-9----9----9----7----10--10---10--10---9---7-------------------------------|
A|-7----9----7----7----------------------9-----------------------------------|
E|------7---------5----------------------7-----------------------------------|

..."and listen to me..."

e|-7777777-------------------------------------------------------------------|
B|-8888888--9999999----------------------------------------------------------|
G|-9999999--9999999----------------------------------------------------------|
D|-9999999--9999999----------------------------------------------------------|
A|-7777777--7777777----------------------------------------------------------|
E|---------------------------------------------------------------------------|

"all you gotta do is baby kick of your shoes"

e|---------------------------------------------------------------------------|
B|---2222222--444444---------------------------------------------------------|
G|---2222222--444444---------------------------------------------------------|
D|---2222222--444444---------------------------------------------------------|
A|------------222222---------------------------------------------------------|
E|---------------------------------------------------------------------------|

"and lay down"

e|-3--000-0000--000-0000-------|
B|-3--000-0000--000-0000-------|
G|-4--111-1111--111-1111-------|
D|-5--222-2222--222-2222-------| 
A|-5--222-0202--222-0202-------|
E|-3--000-0000--000-0000-------|


"climb up here with me and let's forget about sleep"

e|---------------------------------------------------------------------------|
B|---2222222--444444---------------------------------------------------------|
G|---2222222--444444---------------------------------------------------------|
D|---2222222--444444---------------------------------------------------------|
A|------------222222---------------------------------------------------------|
E|---------------------------------------------------------------------------|

"and lay down"

e|-3--000-0000--000-0000-------|
B|-3--000-0000--000-0000-------|
G|-4--111-1111--111-1111-------|
D|-5--222-2222--222-2222-------| 
A|-5--222-0202--222-0202-------|
E|-3--000-0000--000-0000-------|

Then repeat all this for new verse/ chorus 
Until going into bridge type bit with new key introduced:

..."climb up here and let's forget about sleep"

e|---------------------------------------------------------------------------|
B|---2222222--444444---------------------------------------------------------|
G|---2222222--444444---------------------------------------------------------|
D|---2222222--444444---------------------------------------------------------|
A|------------222222---------------------------------------------------------|
E|---------------------------------------------------------------------------|


"and lay down/with me"
e|----4--2--0--2-------------------------------------------------------------|
B|----5--4--0--4-------------------------------------------------------------|
G|----6--4--2--4-------------------------------------------------------------|
D|----6--4--2--4-------------------------------------------------------------| x3
A|----4--2--0--2-------------------------------------------------------------|
E|----------0----------------------------------------------------------------|

transition back to verse 

e|-----------7---------------------------------------------------------------|
B|-----------7---------------------------------------------------------------|
G|--9999999--8---------------------------------------------------------------|
D|--9999999--9---------------------------------------------------------------| 
A|--9999999--9---------------------------------------------------------------|
E|--7777777--7---------------------------------------------------------------|

Then repeat the verse twice

************************************

| /   slide up
| \   slide down
| h   hammer-on
| p   pull-off
| ~   vibrato
| +   harmonic
| x   Mute note
| b   Bend
| pb  Pre-bend
| br  Bend release
| pbr Pre-bend release
| brb Bend release bend

************************************

            
            
Suggest correction
Creating personal tab
Creating personal tab
You can edit any tab online and save it as your Personal.

You can edit, replace or remove any tab part or add personal notes – all changes will be seen only by you.

Personal tabs can be accessed anytime from any device, even offline.
Learn more »
Give kudos to tab author, rate the tab!
1 2 3 4 5
comments
print report bad tab
1 comment total.
0 reply
Jake Motionless 10 Jan 13, 2017 12:42 PM

Thank you so much!!!! I've been a fan of this song for years and years and haven't been able to do much more than an acoustic stripped down version without all the real chords.

guest
You may want to rate the tab now too:
select rating
Wanna post a correction for this tab? Suggest correction