Oops, an error
Loading. Please wait.

The River Bass Tab

55 views 3 this week
no commentswrite comment
1 2 3 4 5
2 more votes to show rating
add to favorites
launch autoscroll
font size
0
reset
guitar tuner
Autoscroll
slow
fast
+/-
esc
set tempo
stop
Help us to improve Ultimate-Guitar.com Take our survey!
×
Author
Difficulty
intermediate
This is the song: The river from the band "The Bombay Royale". First heard their songs in the game "Far cry 4"
Just listen:
https://www.youtube.com/watch?v=3iNxpIhjLws

Tuning: standard


These 3 parts are played right after each other.


[Intro]

G|-------4---------------4------|-------4---------------4------|
D|2--4-5---5-4--2-2--4-5---5-4--|2--4-5---5-4--2-2--4-5---5-4--|
A|------------------------------|------------------------------|
E|------------------------------|------------------------------|


[Verse]

Part 1:

G|-------4---------------4------|-------4---------------4------|
D|2--4-5---5-4--2-2--4-5---5-4--|-2-4-5---5-4--2-2--4-5---5-4--|
A|------------------------------|------------------------------|
E|------------------------------|------------------------------|

Play this part again before playing the 2nd part below.

Part 2:

G|-------4---------------4------|-------4---------------4------|
D|0--4-5---5-4--0-0--4-5---5-4--|0--4-5---5-4--0-0--4-5---5-4--|
A|------------------------------|------------------------------|
E|------------------------------|------------------------------|

Part 3:

G|-------4---------------4------|-------4---------------4------|
D|---4-5---5-4-------4-5---5-4--|---4-5---5-4-------4-5---5-4--|
A|4-------------4-4-------------|4-------------4-4-------------|
E|------------------------------|------------------------------|

I don't own a bass, but i'm guessing for the third part it's the 4th fret on the A-string. 
If its not the 4th i would suggest you try this:

G|-------4---------------4------|-------4---------------4------|
D|---4-5---5-4-------4-5---5-4--|---4-5---5-4-------4-5---5-4--|
A|3-------------3-3-------------|3-------------3-3-------------|
E|------------------------------|------------------------------|

or this instead

G|-------4---------------4------|-------4---------------4------|
D|---4-5---5-4-------4-5---5-4--|---4-5---5-4-------4-5---5-4--|
A|2-------------2-2-------------|2-------------2-2-------------|
E|------------------------------|------------------------------|


[Chorus]

G|---------4---------------4------|---------4---------------4------|
D|2-2--4-5---5-4--2-2--4-5---5-4--|2-2--4-5---5-4--2-2--4-5---5-4--|
A|--------------------------------|--------------------------------|
E|--------------------------------|--------------------------------|

G|---------4---------------4------|---------4---------------4------|
D|0-0--4-5---5-4--0-0--4-5---5-4--|0-0--4-5---5-4--0-0--4-5---5-4--|
A|--------------------------------|--------------------------------|
E|--------------------------------|--------------------------------|
Suggest correction
Give kudos to tab author, rate the tab!
1 2 3 4 5
comments
print report bad tab
guest
You may want to rate the tab now too:
select rating
Wanna post a correction for this tab? Suggest correction