Oops, an error
Loading. Please wait.

Do You Wanna Tab

version 2
version 2

Whole song

138 views 1 this week
no commentswrite comment
1 2 3 4 5
please rate
add to favorites
launch autoscroll
font size
0
reset
how to read this tab
guitar tuner
Tab Pro tools
  • play this tab
  • loop segment
  • change instrument
  • show fretboard
  • metronome
×
Best way to learn
"Do You Wanna"
Autoscroll
slow
fast
+/-
esc
set tempo
stop
Contributor
Difficulty
novice
INTRO
E--------------------|
B--------------------|
G--------------------|
D--2----2----2----2--|
A--2----2----2----2--|
E--0----0----0----0--|


I'VE SPOILED THE DEVIL...
E----------------------------------------------------|
B----------------------------------------------------|
G----------------------------------------------------| X2
D--------99999-77777-99999--------77777-99999-55555--|
A--77777-77777-55555-77777--77777-55555-77777-55555--|
E--55555--------------------55555--------------------|


BLITZKRIEG FLAMES SURROUND ME...
E---------------------------------------|
B---------------------------------------|
G---------------------------------------|
D--2----2----2--------------------------|
A--2----2----2----444444444-2222222222--|
E--0----0----0----222222222-0000000000--|


WELL DO YOU WANNA WANNA WANNA...
E-------------------------------------------|
B-------------------------------------------|
G-------------------------------------------|
D----------------------777777777------------|
A--777777777-222222222-555555555-222222222--|
E--555555555-000000000-----------000000000--|

E-------------------------------------------|
B-------------------------------------------|
G-------------------------------------------|
D------------666666666-777777777------------|
A--777777777-444444444-555555555-222222222--|
E--555555555---------------------000000000--|


ANOTHER DAY...
E----------------------------------------------------|
B----------------------------------------------------|
G----------------------------------------------------| X2
D--------99999-77777-99999--------77777-99999-55555--|
A--77777-77777-55555-77777--77777-55555-77777-55555--|
E--55555--------------------55555--------------------|


BLITZKRIEG FLAMES SURROUND ME...
E-----------------------------------|
B-----------------------------------|
G-----------------------------------|
D--2----2---------------------------|
A--2----2-----444444444-2222222222--|
E--0----0-----222222222-0000000000--|


WELL DO YOU WANNA WANNA WANNA...
E-------------------------------------------|
B-------------------------------------------|
G-------------------------------------------|
D----------------------777777777------------|
A--777777777-222222222-555555555-222222222--|
E--555555555-000000000-----------000000000--|

E-------------------------------------------|
B-------------------------------------------|
G-------------------------------------------|
D------------666666666-777777777------------|
A--777777777-444444444-555555555-222222222--|
E--555555555---------------------000000000--|


SOLO BACKING
E----------------------------------------------------------------------------|
B----------------------------------------------------------------------------|
G----------------------------------------------------------------------------|
D--77777-99999-------77777--77777-99999-------66666-77777-99999-------77777--|
A--55555-77777-77777-55555--55555-77777-77777-44444-55555-77777-77777-55555--|
E--------------55555--------------------55555-------------------55555--------|


BLITZKRIEG FLAMES SURROUND ME...
E---------------------------------------|
B---------------------------------------|
G---------------------------------------|
D--2----2----2--------------------------|
A--2----2----2----444444444-2222222222--|
E--0----0----0----222222222-0000000000--|


WELL DO YOU WANNA WANNA WANNA...
E-------------------------------------------|
B-------------------------------------------|
G-------------------------------------------|
D----------------------777777777------------|
A--777777777-222222222-555555555-222222222--|
E--555555555-000000000-----------000000000--|

E-------------------------------------------|
B-------------------------------------------|
G-------------------------------------------|
D------------666666666-777777777------------|
A--777777777-444444444-555555555-222222222--|
E--555555555---------------------000000000--|

E-----------------------------------|
B-----------------------------------|
G-----------------------------------|
D----------------------777777777----|
A--777777777-555555555-555555555-7--|
E--555555555-333333333-----------5--|

comments
We did not receive enough feedback on this tab! Please rate:
print report bad tab
1 2 3 4 5
I want to post or [tab]
guest
You may want to rate the tab now too:
select rating
Please do not post tabs as comments. Select "correction" instead!