Oops, an error
Loading. Please wait.

Gazoline Business Tab

964 views 1 this week
no commentswrite comment
1 2 3 4 5
please rate
add to favorites
launch autoscroll
font size
0
reset
how to read this tab
guitar tuner
Autoscroll
slow
fast
+/-
esc
set tempo
stop
Help us to improve Ultimate-Guitar.com Take our survey!
×
Author
-------------------------------------------------------------------------------
                        Gazoline Business - The Bones
-------------------------------------------------------------------------------
Tabbed by: schleichi
Email: lemmyfredericksen@yahoo.de

Tuning: standard

INTRO
  guit 1
e|-------------------------------------------------------------------------|
B|-------------------------------------------------------------------------|
G|-9-9-9-9--------9-9-9-9-------9-9-9-9-----9-9-----9-9--9--9--9--9--------|
D|-9-9-9-9--------9-9-9-9-------9-9-9-9-----9-9-----9-9--9--9--9--9--------|
A|-7-7-7-7--------7-7-7-7-------7-7-7-7-----7-7-----7-7--7--7--7--7--------|
E|-------------------------------------------------------------------------|
 |bass (dist)
G|-------------------------------------------------------------------------|
D|-------------------------------------------------------------------------|
A|---------7-7-7-7--------7-7-7-7-------7-7-----7-7--7-7-7-7-7-7-7---------|
E|-------------------------------------------------------------------------|
     
     let ring.. let ring      2x
e|---0----------0--------------|
B|---2---0-2----0--3-2-0-------| 
G|---2-2--------1--------------|
D|---2----------2--------------|
A|---0----------2--------------|
E|--------------0--------------|


VERSE                  let ring       
e|---------------------0-------------| 
B|---------------------0--3-2-0------|
G|---------------------1-------------|   2x
D|---7-7-7-7-7-7-7-7---2-------------|
A|---7-7-7-7-7-7-7-7---2-------------|
E|---5-5-5-5-5-5-5-5---0-------------|
    pm...............
 
PreCHORUS
e|--------------------------------------0---2---0-----------|
B|--------------------------------------0---3---0-----------|
G|--------------------------------------1---2---1-----------|
D|--------------------4-4-4-4-4-4-4-4---2---0---2-----------|
A|--7-7-7-7-7-7-7-7---4-4-4-4-4-4-4-4---2-------2-----------|
E|--5-5-5-5-5-5-5-5---2-2-2-2-2-2-2-2---0-------0-----------|
  pm.................................

CHORUS
e|--0---0---2----0--3---0--0-------|
B|--2---0---2----0--3---0--2-------|
G|--2---1---2----1--2---1--2-------|
D|--2---2---4----2--0---2--2-------|
A|--0---2---4----2------2--0-------|
E|------0---2----0------0----------|
    A   E  Fm#   E  D   E  A
    
      A                  E                         Fm#
It's true, all you gotta do, is fill my tank with booze
     E              D   E    A                
And everything will be just fine
A             E                      Fm#       E              D   D E-->intro  
All you gotta do is fill me up with booze And everything will be alright



SOLO(1:56) (you should use the wahwah pedal if you have one)

e|---------17----------------------------------17----------------------------|
B|--14-------17-14---------14-----14-17---14-17------10--------10------------|
G|--16b18------------14--14-----14-------------------12b14b14--12b14b14------|
D|---------------------16----------------------------------------------------|
A|---------------------------------------------------------------------------|
E|---------------------------------------------------------------------------|
     A                Fm#                            E      D        E


e|---9-12---9-12---9-12---9-12---9-12---------------------------------------------|
B|-10-----10-----10-----10-----10--------10-14---10-14---10-14---10-14----10-14---|
G|-------------------------------------11------11------11-------11-------11-------|
D|--------------------------------------------------------------------------------|
A|--------------------------------------------------------------------------------|
E|--------------------------------------------------------------------------------|
    A                                   Fm#                      


e|-------------------------------------------|
B|-10--------10--------9----------9----------|
G|-12b14b14--12b14b14--11b13b13---11b13b13---|
D|-------------------------------------------|
A|-------------------------------------------|
E|-------------------------------------------|
    E                  D






| /  slide up
| \  slide down
| h  hammer-on
| p  pull-off
| ~  vibrato
| +  harmonic
| x  Mute note
=============================================================================
Suggest correction
Give kudos to tab author, rate the tab!
1 2 3 4 5
comments
print report bad tab
guest
You may want to rate the tab now too:
select rating
Wanna post a correction for this tab? Suggest correction