Oops, an error
Loading. Please wait.

Hey Baby Tab

129 views 3 this week
no commentswrite comment
1 2 3 4 5
3 more votes to show rating
add to favorites
launch autoscroll
font size
0
reset
how to read this tab
guitar tuner
Autoscroll
slow
fast
+/-
esc
set tempo
stop
Help us to improve Ultimate-Guitar.com Take our survey!
×
Author
Difficulty
novice
INTRO
E------------------------------------------|
B------------------------------------------|
G------------------------------------------|
D--7--9--1111111111111111-9-777777-999999--|
A--5--7--9-9-9-9-9-9-9-9--7-555555-777777--|
E------------------------------------------|

E------------------------|
B------------------------|
G------------------------|
D------------------------|
A--7-5-7-5-7-5-7-5-2-55--|
E--5-3-5-3-5-3-5-3-0-33--|

MY BABY...
E---------------------------------------------------------|
B---------------------------------------------------------|
G---------------------------------------------------------| X2
D---------------7--------------7--------------9999999999--|
A--7-7777777777-5-7-7777777777-5-7-7777777777-7777777777--|
E--5-5555555555---5-5555555555---5-5555555555-------------|

I NEVER EVER WANTED...
E--------------------------------------------------------|
B--------------------------------------------------------|
G--------------------------------------------------------|
D--77777-99999-------1111111111-77777-99999--------------|
A--55555-77777-77777-9-9-9-9-9--55555-77777-7-5-7-5-7-5--|
E--------------55555------------------------5-3-5-3-5-3--|

E-----------------------------------------------------------------|
B-----------------------------------------------------------------|
G-----------------------------------------------------------------|
D--77777-99999-------1111111111-77777-99999-----------------------|
A--55555-77777-77777-9-9-9-9-9--55555-77777-7-5-7-5-7-5-7-5-2-55--|
E--------------55555------------------------5-3-5-3-5-3-5-3-0-33--|

HEY BABY...
E---------------------------------------------------------|
B---------------------------------------------------------|
G---------------------------------------------------------| X2
D---------------7--------------7--------------9999999999--|
A--7-7777777777-5-7-7777777777-5-7-7777777777-7777777777--|
E--5-5555555555---5-5555555555---5-5555555555-------------|


I NEVER EVER WANTED...
E--------------------------------------------------------|
B--------------------------------------------------------|
G--------------------------------------------------------|
D--77777-99999-------1111111111-77777-99999--------------|
A--55555-77777-77777-9-9-9-9-9--55555-77777-7-5-7-5-7-5--|
E--------------55555------------------------5-3-5-3-5-3--|

E----------------------------------------------|
B----------------------------------------------|
G----------------------------------------------|
D--77777-99999-------1111111111-77777-99999----|
A--55555-77777-77777-9-9-9-9-9--55555-77777-7--|
E--------------55555------------------------5--|


E-----------------------------------------------------|
B-----------------------------------------------------|
G-----------------------------------------------------|
D--77777-------------------77777----------------------|
A--55555-77777-22222-77777-55555-77777-2--2-2-2-2-22--|
E--------55555-00000-55555-------55555-0--0-0-0-0-00--|


WELL HEY BABY...
E-----------------------------|
B-----------------------------|
G-----------------------------|
D-----------------9999999999--|
A--77--77--77-7-7-7777777777--|
E--55--55--55-5-5-------------|


I NEVER EVER WANTED...
E--------------------------------------------------|
B--------------------------------------------------|
G--------------------------------------------------|
D--77777-99999-------1111111111-77777-99999--------|
A--55555-77777-77777-9-9-9-9-9--55555-77777-4-4-2--|
E--------------55555------------------------2-2-0--|

E--------------------------------------------------------|
B--------------------------------------------------------|
G--------------------------------------------------------|
D--77777-99999-------1111111111-77777-99999--------------|
A--55555-77777-77777-9-9-9-9-9--55555-77777-7-5-7-5-7-5--|
E--------------55555------------------------5-3-5-3-5-3--|

E-------------------------------------------------------------------------------------|
B-------------------------------------------------------------------------------------|
G-------------------------------------------------------------------------------------|
D--77777-99999-------1111111111-77777-99999-------------------------------------------|
A--55555-77777-77777-9-9-9-9-9--55555-77777-7-5-7-5-7-5-7-5-7-5-7-5-7-5-7-5-7-5-7--7--|
E--------------55555------------------------5-3-5-3-5-3-5-3-5-3-5-3-5-3-5-3-5-3-5--5--|



Suggest correction
Give kudos to tab author, rate the tab!
1 2 3 4 5
comments
print report bad tab
guest
You may want to rate the tab now too:
select rating
Wanna post a correction for this tab? Suggest correction