Oops, an error
Loading. Please wait.

Not A Lovesong Tab

2,753 views 1 this week
no commentswrite comment
1 2 3 4 5
please rate
add to favorites
launch autoscroll
font size
0
reset
how to read this tab
guitar tuner
Tab Pro tools
  • play this tab
  • loop segment
  • change instrument
  • show fretboard
  • metronome
×
Best way to learn
"Not A Lovesong"
Autoscroll
slow
fast
+/-
esc
set tempo
stop
Contributor
-----------------------------------------------------------------------------
                             Not A Lovesong - The Bones
-----------------------------------------------------------------------------
Tabbed by: schleichi


Tuning: standard

D           G          D                   B    A         D
Goddamn it, you said it Said to me that I had nothing to lose
D             G                       B    A
Got pissed on, and you gave me the blues

D          G           D                B          A       D
Bad morning all alone Waking up from a barfight, lost my comb
D             G                   G D A                           G    D A
Got cheated on, well I piss on you       'cause you gave me the blues


CHORUS
    D                                       G
The loving was bad, the loving I had wasn't mine
           G                       B              A                    G    A
There was something about it, something about it That made me lose my mind
D                                        G
Love is unkind, the loving I had wasn't mine
           G                      B                A                   G    A
There was something about it, something about it That made me lose my mind


D*            G            D                    B          A   D
Tried hating, tried dating Made mistakes that I'll never do again
D           G                G  D A                           G    D A
Got shit on, well I piss on you     'cause you gave me the blues
                                                 *2nd guit* A|-5-5...-5-5-5-|
                                                            E|--------------|

CHORUS

(1:34)
e|-------------------------------------------|
B|-------------------------------------------|
G|-------------------------------------------|
D|--9-9--7-7----5-5---7-7-7-7----------------|
A|--9-9--7-7----5-5---7-7-7-7----------------|
E|--7-7--5-5----3-3---5-5-5-5----------------|

SOLO
e|--------------------------------------------------------------------------|
B|-13----13----13----13------10---------------------------------------------|
G|-15b17-15b17-15b17-15b17---12b14--12-10--12-12p10-------------------------|
D|--------------------------------------------------------------------------|
A|------4x------------------------------------------------------------------|
E|--------------------------------------------------------------------------|
    D     D     D    D   D    D     D      A   A  D
(1:47) e|-----7p5-----7p5-----7p5-----7p5-----7p5------------------------------------|
B|--------7p5-----7p5-----7p5-----7p5-----7p5-----5-----8-----10---------------------|
G|------------------------------------------------7b9--10b12--12b14------------------|
D|-----------------------------------------------------------------------------------|
A|-----------------------------------------------------------------------------------|
E|-----------------------------------------------------------------------------------|
     B    B       B      B    B        B     B     E    G      A

verse
D                G           D            B        A    D
Got stepped on, got pissed on Don't ever fuck with me again
D              G    G    D    A                      G    D A
Well I've got news, news for you I'll give you the blues

    CHORUS 2x

| /  slide up
| \  slide down
| h  hammer-on
| p  pull-off
| ~  vibrato
| +  harmonic
| x  Mute note
==============================================================================
comments
We did not receive enough feedback on this tab! Please rate:
print report bad tab
1 2 3 4 5
I want to post or [tab]
guest
You may want to rate the tab now too:
select rating
Please do not post tabs as comments. Select "correction" instead!