Oops, an error
Loading. Please wait.

Hearts Racing Acoustic tab

475 views 24 this week
6 commentsread comments
1 2 3 4 5
x 3
add to favorites
×
Save as Personal and add changes to this tab that will be seen only by you. Learn more ›
×
You can save this tab as Personal to edit and correct it or add notes. All changes will be seen only by you. Learn more »
launch autoscroll
font size
0
reset
how to read this tab
guitar tuner
edit
Autoscroll
slow
fast
+/-
esc
set tempo
stop
About this tab version
This version is his Spindle Room session. Any tabs that starts with "/" at the beginning means he uses the slide for that part. Was this info helpful? Yes No
Some things to know:
The song is in open G meaning, DGDGBd. With capo on 5. And 85 bpm.
The slide is on his pinky while he places the intro, verse, and pre-chorus.
I pulled this together from this youtube video: 
https://www.youtube.com/watch?v=AXdFIirqUvk

[Intro]
d|------2-------------4----------0h2-4-2p0-----|0h2-4-|     
B|--3--3--3-------2--2--2-----0------------0---|------|
G|----2-----2-------2-----2-----0-------------0|------|
D|-------4-------------2---------0-------------|0----0|
G|-2-------2-----2-------2---0--------0-----0--|------|
D|---0-------------0-----------0----------0----|------|

d|------2-------------4----------0h2-4-2p0-----|0h7-4-|     
B|--3--3--3-------2--2--2-----0------------0---|------|
G|----2-----2-------2-----2-----0-------------0|------|
D|-------4-------------2---------0-------------|0----0|
G|-2-------2-----2-------2---0--------0-----0--|------|
D|---0-------------0-----------0----------0----|------|

[Verse I]
(Exactly the same as the Intro)
d|------2-------------4---------0h2-4-2p0-----|0h2-4-|0h7--4|     
B|--3--3--3-------2--2--2----0------------0---|------|------|
G|----2-----2-------2-----2----0-------------0|------|------|
D|-------4-------------2--------0-------------|0----0|0-----|
G|-2-------2-----2-------2--0--------0-----0--|------|------|
D|---0-------------0----------0----------0----|------|------|

Our hearts are racing, let's go chase them down
My blood is pumping a hundred miles an hour

[Pre-Chorus]
d|------0-----------0-----------7-----------0-----|
B|--3--3--3-----2--2--2-----7--7--7-----0--0--0---|
G|----4-----4-----2-----2-----7-----7-----0-----0-|
D|-------0-----------0-----------7-----------0----|
G|-4-------4---2-------2---7-------7---0-------0--|
D|---0-----------0-----------0-----------0--------|

All these bruises
Just a reason, there's no turning back for me

d|------0-----------0-----------0h2-4-2p0----0h7-4|
B|--3--3--3-----2--2--2-----0-------------0-------|
G|----4-----4-----2-----2-----0-------------0-----|
D|-------0-----------0----------0------------0----|
G|-4-------4---2-------2---0-------------0--------|
D|---0-----------0------------0------0-----0------|

Honey we can, finally let our wild run free
Let our wild run free

[Chorus]
(Here he starts using the slide: see 1:21)
d|/------7-----------2----------7\4\0-----7/9\4|
B|/--7--7--7-----2--2--2-----0---------0-------|
G|/----7-----7-----2-----2-----0---------0-----|
D|/-------7-----------2---------0---------0----| 2x
G|/-7-------7---2-------2---0---------0--------|
D|/---0-----------0-----------0----0----0------|

[Verse II]
d|/------7-----------2----------0h2-4-2p0----0h2-4|
B|/--7--7--7-----2--2--2-----0------------0-------|
G|/----7-----7-----2-----2-----0------------0-----|
D|/-------7-----------2---------0------------0----|
G|/-7-------7---2-------2---0------------0--------|
D|/---0-----------0-----------0----0-------0------|

d|/------7-----------2----------0h2-4-2p0----0h7-4|
B|/--7--7--7-----2--2--2-----0------------0-------|
G|/----7-----7-----2-----2-----0------------0-----|
D|/-------7-----------2---------0------------0----|
G|/-7-------7---2-------2---0------------0--------|
D|/---0-----------0-----------0----0-------0------|

Baby we're wasting, that don't matter now
Was too young a nerve, not to give a damn anyhow
Then our blood on swey, honey written on the wall
Written on the wall


[Pre-Chorus]
(Here he goes back to fingerpicking wihtout the slide)

d|------0-----------0-----------7-----------0-----|
B|--3--3--3-----2--2--2-----7--7--7-----0--0--0---|
G|----4-----4-----2-----2-----7-----7-----0-----0-|
D|-------0-----------0-----------7-----------0----|
G|-4-------4---2-------2---7-------7---0-------0--|
D|---0-----------0-----------0-----------0--------|

d|------0-----------0-----------0h2-4-2p0----0h7-4|
B|--3--3--3-----2--2--2-----0-------------0-------|
G|----4-----4-----2-----2-----0-------------0-----|
D|-------0-----------0----------0------------0----|
G|-4-------4---2-------2---0-------------0--------|
D|---0-----------0------------0------0-----0------|

d|------0-------|
B|--3--3--3----2|
G|----4-----4--2|
D|-------0------|
G|-4-------4---2|
D|---0----------|

Your loveless words are just a reason there's no turning back for you
Don't you wanna see just what this love can do?
Don't you wanna see just what trouble we can get into?

[Chorus]
d|/------7-----------2----------7\4\0-----7/9\4|
B|/--7--7--7-----2--2--2-----0---------0-------|
G|/----7-----7-----2-----2-----0---------0-----|
D|/-------7-----------2---------0---------0----|
G|/-7-------7---2-------2---0---------0--------|
D|/---0-----------0-----------0----0----0------|

d|/------7-----------2----------7\4\0-----7/9\4|
B|/--7--7--7-----2--2--2-----0---------0-------|
G|/----7-----7-----2-----2-----0---------0-----|
D|/-------7-----------2---------0---------0----|
G|/-7-------7---2-------2---0---------0--------|
D|/---0-----------0-----------0----0----0------|

d|/------7-----------2----------7\4\0-----7/9\4|
B|/--7--7--7-----2--2--2-----0---------0-------|
G|/----7-----7-----2-----2-----0---------0-----|
D|/-------7-----------2---------0---------0----|
G|/-7-------7---2-------2---0---------0--------|
D|/---0-----------0-----------0----0----0------|

d|/------7-----------2-----------0---------0----|
B|/--7--7--7-----2--2--2-----0--0--0---0--0--0--|
G|/----7-----7-----2-----2-----0-----0---0-----0|
D|/-------7-----------2-----------0---------0---|
G|/-7-------7---2-------2---0-------0-0-------0-|
D|/---0-----------0-----------0---------0-------|

[Verse III]
d|------2-------------4----------0h2-4-2p0-----|0h7-4-|     
B|--3--3--3-------2--2--2-----0------------0---|------|
G|----2-----2-------2-----2-----0-------------0|------|
D|-------4-------------2---------0-------------|0----0|
G|-2-------2-----2-------2---0--------0-----0--|------|
D|---0-------------0-----------0----------0----|------|

d|------2-------------4------0---|     
B|--3--3--3-------2--2--2----0---|
G|----2-----2-------2-----2--0---|
D|-------4-------------2---------|
G|-2-------2-----2-------2---0---|
D|---0-------------0-------------|

Our hearts our racing, let's go chase them down
We're looking for an excuse to get out of this town



********************
| h   Hammer-on  
| p   Pull-off   
| /   Slide up  
| \   Slide down 
*********************

            
            
Suggest correction
Creating personal tab
Creating personal tab
You can edit any tab online and save it as your Personal.

You can edit, replace or remove any tab part or add personal notes – all changes will be seen only by you.

Personal tabs can be accessed anytime from any device, even offline.
Learn more »
Give kudos to tab author, rate the tab!
1 2 3 4 5
comments
print report bad tab
6 comments total. Showing first comments.
0 reply
bmeza1011 44 Apr 19, 2017 12:09 AM

👍

0 reply
dshud3 10 Apr 22, 2017 10:14 AM

Thank you so much bmeza1011

+1 reply
bmeza1011 44 Apr 23, 2017 08:27 PM

Oh, please... I only did it cause I saw none of his music was here. He deserves more recognition

guest
You may want to rate the tab now too:
select rating
Wanna post a correction for this tab? Suggest correction