Oops, an error
Loading. Please wait.

Cold Sweat chords

157 views 1 this week
no commentswrite comment
1 2 3 4 5
2 more votes to show rating
add to favorites
×
Save as Personal and add changes to this tab that will be seen only by you. Learn more ›
×
You can save this tab as Personal to edit and correct it or add notes. All changes will be seen only by you. Learn more »
launch autoscroll
font size
0
reset
transpose
0
reset
simplify chords
display chords
guitar tuner
edit
Autoscroll
slow
fast
+/-
esc
set tempo
stop
Author
Difficulty
About this tab version
This version contains tabs, chords, and lyrics. Was this info helpful? Yes No
Strumming
There is no strumming pattern for this song yet. and get +5 IQ
Cold Sweat - The Boneshakers

Verse Riff - A7
---------------------------------------------|
---------------------5~----------------------|
---------------------5~----------------------|
-------5--4----------------------------------|
---0----------3--------------4--5--7---------|
---------------------------------------------|

Chorus: G7   Eb9    D9                                                              D9
-----3-------6-----5-----       ----------------------------------------------------X----|
-----3-------6-----5-----       ----------------------------------------------------6----|
-----4-------6-----5-----  x4   ----------------------------------------------------5----|
-----3-------5-----4-----       ---------------------------------------2--3--4------4----|
-----5-------6-----5-----       ------2--3--4--5------------------------------------5----|
-----3-------------------       ----------------------------------------------------X----|
                                    I wake up              In a cold sweat

Intro 4x |  Verse | Chorus | Verse | Chorus | Guitar Solo (Verse) | Chorus | Vamp Outro

[Verse]
A7
I don`t care ha about your past
I just want ho our love to last dee
I don`t care darlin` about your faults huh
I just want to satisfy your pulse

[Chorus]
G7       Eb9  Db9
When you kiss me
When you mess me
Hold my hand 
Make me understand
 
I wake up – in a cold sweat

[Verse]
A7
I don`t care about your wants
I just wanna ha! tell ya about the does and don`ts
I don`t care about the way you treat me darlin` ha!
I just want huh! to understand me honey

[Chorus]
G7       Eb9  Db9
When you kiss me
And ya miss me
You hold me tight
Make everything all right

[Solo]

[Chorus]
G7       Eb9  Db9
When you kiss me
And ya miss me
You hold me tight
Make everything all right

I break out – in a cold sweat
 
 [Vamp outro]
Suggest correction
Creating personal tab
Creating personal tab
You can edit any tab online and save it as your Personal.

You can edit, replace or remove any tab part or add personal notes – all changes will be seen only by you.

Personal tabs can be accessed anytime from any device, even offline.
Learn more »
Give kudos to tab author, rate the tab!
1 2 3 4 5
comments
print report bad tab
guest
You may want to rate the tab now too:
select rating
Wanna post a correction for this tab? Suggest correction