Oops, an error
Loading. Please wait.

If You Want It Tab

579 views 1 this week
no commentswrite comment
1 2 3 4 5
please rate
add to favorites
launch autoscroll
font size
0
reset
how to read this tab
guitar tuner
Tab Pro tools
  • play this tab
  • loop segment
  • change instrument
  • show fretboard
  • metronome
×
Best way to learn
"If You Want It"
Autoscroll
slow
fast
+/-
esc
set tempo
stop
#----------------------------------PLEASE NOTE---------------------------------#
#This file is the author's own work and represents their interpretation of the #
#song. You may only use this file for private study, scholarship, or research. #
#------------------------------------------------------------------------------##
From: casu@ens.lifl.fr
Date: Wed, 13 Dec 95 12:44:19 +0100


If you want it, take it
                     by The BOO RADLEYS

Intro:
   A             F#m           F       F
E--------------------------------------------------------------|
B--------------------------------------------------------------|
G--------------------5-4-2h4p2---2-4---4-5--5-5-5-4h5p4-2h4p2--|
D--5/7-7-5/7-7-7-4-4-----------4-------------------------------|
A--------------------------------------------------------------|
E--------------------------------------------------------------|

   A             F#m           F       F
E------------------------------------------------------------------|
B------------------------------------------------------------------|
G--------------------5-4-2h4p2---2-4-5-5/7--7-7-7-5h7p5-4h5p4-4\2--|
D--5/7-7-5/7-7-7-4-4-----------4-----------------------------------|
A------------------------------------------------------------------|
E------------------------------------------------------------------|


A                 F#m
Call the cops and make it loud
F
Nowhere to hide away
F
Nothing to bribe them with
A                F#m
I've got nothing against not being proud
F
to me it's alright,
F
It's alright, it's alright
A                     F#m
Grab what's going and make it mine
F
No sense in hanging round
F
Waiting for hand-me downs
A             F#m
I don't worry about being proud
F
As long as I'm alright
F
I'm alright, I'm alright


A               F#m
If you want it, make it yours
F
There's nothing bright about
F
being undecided
A               F#m
If you want it, take it all
F
There's nothing cool about
F
Having to go without.

A   F   x4
A   F#m   F   F  x5
A

===
BOO Up !
comments
We did not receive enough feedback on this tab! Please rate:
print report bad tab
1 2 3 4 5
I want to post or [tab]
guest
You may want to rate the tab now too:
select rating
Please do not post tabs as comments. Select "correction" instead!