Oops, an error
Loading. Please wait.

Do It chords

9,959 views 21 this week
3 commentsread comments
1 2 3 4 5
x 5
add to favorites
×
Save as Personal and add changes to this tab that will be seen only by you. Learn more ›
×
You can save this tab as Personal to edit and correct it or add notes. All changes will be seen only by you. Learn more »
launch autoscroll
font size
0
reset
transpose
0
reset
simplify chords
display chords
guitar tuner
edit
Autoscroll
slow
fast
+/-
esc
set tempo
stop
Strumming
There is no strumming pattern for this song yet. and get +5 IQ
[Intro]
  B5             (E5)     (A5)     B5
e|-2~------------------------------------------------------|
h|-------------------0--2/3-0------0-----------------------|
g|---------------------------------------------------------|
d|---------------------------------------------------------|
a|-2--------------0----------------2-----------------------|
E|----------------0----------------------------------------|
  Do it - set your Soul on flame - High octane in your vein

  B5             (E5)      (A5)   B5
e|-2~----------------------------------------------------------------|
h|----------------------------------3--------------2---0-2/3-0--0----|
g|-------------------------------------------------------------------|
d|-------------------------------------------------------------------|
a|-2--------------------------0-----2--------------0---2--------2----|
E|-------------------------------------------------0------------0----|
     and if the flame's jump higher - your love is on fire  -  do it!

[Instrumental]
   (B5)
e|-------------------------|
h|-------------------------|
g|-(4)---------------------|
d|-(4)---------------------|3x
a|-(2)---------5-----------|
E|--0--7---5-7--5-7--------|


e|------------------------|----------------|-----------------|
h|------------------------|----------------|-----------------|
g|------------------------|----------------|-----------------|
d|--------------0-2--0----|----------------|-----------------|
a|------------2----2------|--7---7---7---7-|---7---7---7---7-|
E|-0-7----5-7-------------|0---0---0---0---|-0---0---0---0---|

[Verse 1]
         B5
You gotta do it - what you're talking about
        B5
i said do it - without any doubt
           B5
you gotta do it - if you think it's alright
      B5
i said do it - no fuss no fight
B5                                     B5
do it - and if they tell you not, still do it
          B5
you only got one shot
B5
 you gotta kick butt, give all you got
B5                       E5
  turn on, tune in,  to show
        A5       B5
alright fight! - Do it you don't need a master plan,
     B5
just do it, baby oh yes you can
E5
do it man - hot damn!

[chorus]
E5                B5    F#5 A5
 set your love on fire
B5            F#5   A5    G5              E5
 and let the flames burn higher - so set fire
        B5              A5            E5
to your heart, to your soul, to your mind
        B5
let it shine
        B5              A5
to your dream, your everything
           E5      B5
it's your flame of fame
     E5           A5 B5
so set your love on fire

[Instrumental]
   (B5)
e|------------------|----------------------|---------------------|-----------|
h|------------------|----------------------|---------------------|-----------|
g|-(4)--------------|----------------------|---------------------|-----------|
d|-(4)--------------|-4----------------0---|-4------------0-2----|-2---------|
a|-(2)---------5----|-2------------0-2---0-|-2----------2----0-2-|-4---------|
E|--0--7---5-7--5-7-|----7--5-7--2---------|---7---5--7----------|----7--5-7-|

[Verse 2]
     B5                                 B5
you gotta do it - take the money and run - quit your job and have fun
B5                         B5
live, love, kiss and tell  -  party on, till the break of dawn
B5                                   B5
 and when they tell you stop - stick do it
              B5
whether they dig it or not
          B5
put your big foot down, you're wearing the crown,
          B5
you gotta go go baby go burn it down!
E5
do it ma'am, hot damn

[chorus]
E5                B5    F#5 A5
 set your love on fire
B5            F#5   A5    G5              E5
 and let the flames burn higher - so set fire
        B5              A5            E5
to your heart, to your soul, to your mind
        B5
let it shine
        B5              A5
to your dream, your everything
           E5      B5
it's your flame of fame
     E5           A5 B5
so set your love on fire

[Instrumental]
   (B5)
e|------------------|-----------------------|
h|------------------|-----------------------|
g|-(4)--------------|-----------------------|
d|-(4)--------------|-4----------------0----|
a|-(2)---------5----|-2--2-2-2-2-2-0-2---2--|
E|--0--7---5-7--5-7-|-----------------------|

[Bridge]
B5/F#                                     D
no can if it sucks, just can do if it rocks,
                         D
no can do - if you're not in the flow no go,
B5/F#
do it - things that you adore,
D
do it - you would die for
E5             F#5
do it - ma'am-damn

[chorus]
                B5    F#5 A5
 set your love on fire
B5            F#5   A5    G5        F#5
 and let the flames burn higher - higher
                 B5    F#5 A5
 set your love on fire
B5            F#5   A5    G5              E5
 and let the flames burn higher - so set fire
        B5              A5            E5
to your heart, to your soul, to your mind
        B5
let it shine
        B5              A5
to your dream, your everything
           E5      B5
it's your flame of fame
     E5           A5 B5
so set your love on fire

[Outro]
   (B5)
e|------------------|----------------------|---------------------|-----------|
h|------------------|----------------------|---------------------|-----------|
g|-(4)--------------|----------------------|---------------------|-----------|
d|-(4)--------------|-4----------------0---|-4------------0-2----|-2---------|
a|-(2)---------5----|-2------------0-2---0-|-2----------2----0-2-|-4---------|
E|--0--7---5-7--5-7-|----7--5-7--2---------|---7---5--7----------|----7--5-7-|

************************************

| ~    Vibrato
| h    Hammer-on
| /    Slide up
| (n)  Ghost note

************************************
Suggest correction
Creating personal tab
Creating personal tab
You can edit any tab online and save it as your Personal.

You can edit, replace or remove any tab part or add personal notes – all changes will be seen only by you.

Personal tabs can be accessed anytime from any device, even offline.
Learn more »
comments
print report bad tab
3 comments total.
0 reply
Julia Heaven 672 Nov 02, 2013 02:53 AM, edited on September 16 2016, 10:36 am

I hope you like it :D

0 reply
Julia Heaven 672 Nov 02, 2013 02:57 AM, edited on September 16 2016, 10:36 am

I made a new version. Sorry for the old one - it wasn't that great!

0 reply
florian.faber.5 10 Nov 28, 2013 07:24 AM

its good :)

guest
You may want to rate the tab now too:
select rating
Wanna post a correction for this tab? Suggest correction