Oops, an error
Loading. Please wait.

Hayday chords

70 views 1 this week
no commentswrite comment
1 2 3 4 5
3 more votes to show rating
add to favorites
×
Save as Personal and add changes to this tab that will be seen only by you. Learn more ›
×
You can save this tab as Personal to edit and correct it or add notes. All changes will be seen only by you. Learn more »
launch autoscroll
font size
0
reset
transpose
0
reset
simplify chords
display chords
guitar tuner
edit
Autoscroll
slow
fast
+/-
esc
set tempo
stop
Author
Difficulty
About this tab version
First version of the song. Was this info helpful? Yes No
Strumming
There is no strumming pattern for this song yet. and get +5 IQ
[Wait-drums only]
1 2 3 4

[Intro]
  Bm               Asus4  E
e|------------------------------------|
B|------------------------------------|
G|------------------------------------| (x4)
D|---0-0-0--0-------------2-2----0-0--|
A|-2-------2---2-2-0------2-2--2-0-0--|
E|------------------------------------|

[hold on E]
1  2  3  4 - 1  2  3  4

[Solo/Intro-part]
  Bm               Asus4  E              Bm              Asus4 E7
e|------------------------------------|-----------------------------|
B|------------------------------------|-----------------------------|
G|------------------------------------|--------------------2-2--1-1-| 
D|---0-0-0--0-------------2-2----0-0--|---0-0-0---0--------0-0--0-0-|
A|-2-------2---2-2-0------2-2--2-0-0--|-2--------2--2-2-0-----------|
E|------------------------------------|-----------------------------|

  Bm               Asus4  E              Bm              Asus4 E7
e|------------------------------------|-----------------------------|
B|------------------------------------|-----------------------------|
G|------------------------------------|--------------------2-2--1-1-| 
D|---0-0-0--0-------------2-2----0-0--|---0-0-0---0--------0-0--0-0-|
A|-2-------2---2-2-0------2-2--2-0-0--|-2--------2--2-2-0-----------|
E|------------------------------------|-----------------------------|

[Verse 1]
     Bm                   Asus4 E
I'm rollin' my ride on the 1-1-5
       Bm                   Asus4       E
ready to recieve some good fun for the eve'
         Bm                  Asus4    E
got some money to burn, ready to consume
         Bm                        Asus4     E
need a special concern, 'cause my life is in bloom

  Bm               Asus4  E              Bm              Asus4 E7
e|------------------------------------|-----------------------------|
B|------------------------------------|-----------------------------|
G|------------------------------------|--------------------2-2--1-1-| 
D|---0-0-0--0-------------2-2----0-0--|---0-0-0---0--------0-0--0-0-|
A|-2-------2---2-2-0------2-2--2-0-0--|-2--------2--2-2-0-----------|
E|------------------------------------|-----------------------------|

[Pre-Chorus]
Bm                     Asus4   E
Now hurry hurry to the city safari
Bm                          Asus4     E
across berlin, 'cause we're havin' a party
     Bm                Asus4         
we'll do what we want, live what we feel
E             Bm                    Asus4   E   Bm   D  E
sing like we wanna sing, swing, sway, aha - HAYDAY

[Chorus] 
 G         D  Em   C
Hey gimme hi-five!
             G              D                Em
we're in our HAYDAY, we're having out payday
           C        G        D   Em   C
oh what a day hey! Hey gimme hi-five!
   G                 D       Em      C
HAYDAY is here to stay tell me what i say
 G         D    Em  C      G         D  Em   C
hey gimme hi-five,    hey hey gimme hi-five!
        G        D            Em         C
our HAYDAY is here to stay, won't let it go away
D             A G Em
hey hey now sway away

  Bm               Asus4  E              Bm              Asus4 E7
e|------------------------------------|-----------------------------|
B|------------------------------------|-----------------------------|
G|------------------------------------|--------------------2-2--1-1-| 
D|---0-0-0--0-------------2-2----0-0--|---0-0-0---0--------0-0--0-0-|
A|-2-------2---2-2-0------2-2--2-0-0--|-2--------2--2-2-0-----------|
E|------------------------------------|-----------------------------|

[Verse 2]
      Bm                        Asus4       E
Now show a little additude, a little bit of graditude
     Bm                  Asus4      E
if life's ordenary - or even quite scary
         Bm                   Asus4       E
pick the extra ordenary - and swallow it down
         Bm                      Asus4       E
be your own special rebel, with every blood cell 

  Bm               Asus4  E              Bm              Asus4 E7
e|------------------------------------|-----------------------------|
B|------------------------------------|-----------------------------|
G|------------------------------------|--------------------2-2--1-1-| 
D|---0-0-0--0-------------2-2----0-0--|---0-0-0---0--------0-0--0-0-|
A|-2-------2---2-2-0------2-2--2-0-0--|-2--------2--2-2-0-----------|
E|------------------------------------|-----------------------------|

[Pre-Chorus]
Bm                    Asus4     E
Now hurry hurry bro' hey sweet sister
Bm                          Asus4   E
lets get it going fast, don't be a drifter
     Bm                   Asus4      
we'll do what we want, live what we feel
E            Bm                Asus4   E        Bm   D  E
sing what we wanna sing, swing, sway, aha - HAYDAY

[Chorus] (x2)
 G         D  Em   C
Hey gimme hi-five!
             G              D                Em
we're in our HAYDAY, we're having out payday
           C        G        D   Em   C
oh what a day hey! Hey gimme hi-five!
   G                 D       Em      C
HAYDAY is here to stay tell me what i say
 G         D    Em  C      G         D  Em   C
hey gimme hi-five,    hey hey gimme hi-five!
        G        D            Em         C
our HAYDAY is here to stay, won't let it go away
D             A G Em
hey hey now sway away

[Outro]
Em  G  A  Bm  (4x)

            
            
Suggest correction
Creating personal tab
Creating personal tab
You can edit any tab online and save it as your Personal.

You can edit, replace or remove any tab part or add personal notes – all changes will be seen only by you.

Personal tabs can be accessed anytime from any device, even offline.
Learn more »
Give kudos to tab author, rate the tab!
1 2 3 4 5
comments
print report bad tab
guest
You may want to rate the tab now too:
select rating
Wanna post a correction for this tab? Suggest correction