Oops, an error
Loading. Please wait.

Live It Up Tab

7 views 1 this week
no commentswrite comment
1 2 3 4 5
3 more votes to show rating
add to favorites
launch autoscroll
font size
0
reset
how to read this tab
guitar tuner
Autoscroll
slow
fast
+/-
esc
set tempo
stop
Help us to improve Ultimate-Guitar.com Take our survey!
×
Author
Difficulty
intermediate
About this tab version
First version of the song (tab). Was this info helpful? Yes No
[Intro]
    C          Am
e|-------------------------|
H|-------------------------|
G|----------0-----0h2p0----|
D|-----0h2--------------2--|   x6 
A|--3----------0-----------|
E|-------------------------|

[Verse 1]
   C          Am              C         Am                C       Am
e|-------------------------|---------------------------|--------------------------|
H|-------------------------|---------------------------|--------------------------|
G|----------0-----0h2p0----|--------------0----0h2p0---|----------0------0h2p0----|
D|-----0h2--------------2--|-------0h2---------------2-|-----0h2----------------2-| 
A|--3----------0-----------|--3-------------0----------|--3---------0-------------|
E|-------------------------|---------------------------|--------------------------|
   I can't get enough.      And I'm dreaming' of        Spreading my wings and fly 
 
     F       C                  C         Am              C             Am
e|---1-1-1---0---------------|-------------------------|--------------------------|
H|---1-1-1---1-------0-------|-------------------------|--------------------------|
G|---2-2-2---0---0h2---------|------------0----0h2p0---|----------0------0h2p0----|
D|---3-3-3---2---------------|-------0h2-------------2-|-----0h2----------------2-| 
A|-----------3---------------|--3-----------0----------|--3---------0-------------|
E|---------------------------|-------------------------|--------------------------|
   into the sky.               Into a new direction,    in a pair of new shoes, 

     C             Am               F      C              
e|-----------------------------|---1-1-1---0------------|
H|-----------------------------|---1-1-1---1-------0----|
G|---------------------0h2p0---|---2-2-2---0---0h2------|
D|------0h2------------------2-|---3-3-3---2------------|
A|---3-------------0-----------|-----------3------------|
E|-----------------------------|------------------------|
   I'll run like a fast-train to find my satisfaction.

   D             Bm       D                Bm
e|-2---------------------|-2---------------------|
H|-3---------------------|-3---------------------|
G|-2-------2-------2h4p2-|-2------2--------2h4p2-|
D|-0---2h4-------0-------|-0--2h4--------0-------|
A|-----------------------|-----------------------|
E|-----------------------|-----------------------|
  I want a new 'nothing' - and I'm happy to say! 
 
   D                    Bm        G       D
e|-2--------------------------|---3-3-3---2--------|
H|-3--------------------------|---3-3-3---3--------|
G|-2-------2------------2h4p2-|---4-4-4---2------2-|
D|-0---2h4------------0-------|---5-5-5---0--2h4---|
A|----------------------------|--------------------|
E|----------------------------|--------------------|
  I wanna build up my castle and follow my way.

   D           Bm             D         Bm
e|-2----------------------|---2----------------|
H|-3----------------------|---3----------------|
G|-2-------2--------2h4p2-|---2------2---2h4p2-|
D|-0---2h4--------0-------|---0--2h4---0-------|
A|------------------------|--------------------|
E|------------------------|--------------------|
 Don't want no more lies, to keep me upbeat, 

   D                Bm          G       D            F
e|-2-----------------------|----3-3-3---2----------|-1---|
H|-3-----------------------|----3-3-3---3----------|-1---|
G|-2-------2---------2h4p2-|----4-4-4---2------2---|-3---|
D|-0---2h4---------0-------|----5-5-5---0--2h4-----|-3---|
A|-------------------------|-----------------------|-3---|
E|-------------------------|-----------------------|-1---|
  I don't wanna run, 'cause after rain will be sun.. Common!

[Chorus]
        C           A#
I said, hey ho come on run, 
F
Take the cake, before it's gone
     C        A#             F
Now hey ho, live it up for today! 
         C         A#      
Hey hey hey-ho, now don't you run, 
    F
No need to be No. 1, 
C                  A#
Relax, hear what I say, 
                F
You'll find your way, hey-ho anyway, 
                    C      
Now live it up for today-ho, 
A#            F
Live It Up! Hey ho - Live It Up! 
C
Hey-ho
A#            F
Live It Up! Hey ho - Live It Up!

[Verse 2]
   C          Am              C         Am                C       Am
e|-------------------------|---------------------------|--------------------------|
H|-------------------------|---------------------------|--------------------------|
G|----------0-----0h2p0----|--------------0----0h2p0---|----------0------0h2p0----|
D|-----0h2--------------2--|-------0h2---------------2-|-----0h2----------------2-| 
A|--3----------0-----------|--3-------------0----------|--3---------0-------------|
E|-------------------------|---------------------------|--------------------------|
   My frame of mind,         it's golden cage -          Looking so good,
  
     F       C                  C         Am              C             Am
e|---1-1-1---0---------------|-------------------------|--------------------------|
H|---1-1-1---1-------0-------|-------------------------|--------------------------|
G|---2-2-2---0---0h2---------|------------0----0h2p0---|----------0------0h2p0----|
D|---3-3-3---2---------------|-------0h2-------------2-|-----0h2----------------2-| 
A|-----------3---------------|--3-----------0----------|--3---------0-------------|
E|---------------------------|-------------------------|--------------------------|
hey, but I need more space.     I wanna break out,       fly   a  - way, 

     C          Am              F      C              
e|--------------------------|---1-1-1---0------------|
H|--------------------------|---1-1-1---1-------0----|
G|------------------0h2p0---|---2-2-2---0---0h2------|
D|------0h2---------------2-|---3-3-3---2------------|
A|---3----------0-----------|-----------3------------|
E|--------------------------|------------------------|
    Free my   animal            and let it play.

   D             Bm       D                Bm
e|-2---------------------|-2---------------------|
H|-3---------------------|-3---------------------|
G|-2-------2-------2h4p2-|-2------2--------2h4p2-|
D|-0---2h4-------0-------|-0--2h4--------0-------|
A|-----------------------|-----------------------|
E|-----------------------|-----------------------|
  Hey, I'm    okay -     with my peace of mind, 
 
   D               Bm          G       D
e|-2----------------------|---3-3-3---2--------|
H|-3----------------------|---3-3-3---3--------|
G|-2-------2--------2h4p2-|---4-4-4---2------2-|
D|-0---2h4--------0-------|---5-5-5---0--2h4---|
A|------------------------|--------------------|
E|------------------------|--------------------|
     My animal found it's    'one of a kind', 

   D           Bm                D         Bm
e|-2-------------------------|---2----------------|
H|-3-------------------------|---3----------------|
G|-2-------2--------2h4p2----|---2------2---2h4p2-|
D|-0---2h4--------0----------|---0--2h4---0-------|
A|---------------------------|--------------------|
E|---------------------------|--------------------|
  I'm free in my world, like a fish in the sea, If it 

   D             Bm          G       D            F
e|-2---------------------|----3-3-3---2----------|-1---|
H|-3---------------------|----3-3-3---3----------|-1---|
G|-2-------2-------2h4p2-|----4-4-4---2------2---|-3---|
D|-0---2h4-------0-------|----5-5-5---0--2h4-----|-3---|
A|-----------------------|-----------------------|-3---|
E|-----------------------|-----------------------|-1---|
 stays like this, then it's fine with me...       Common!

[Chorus]
        C           A#
I said, hey ho come on run, 
F
Take the cake, before it's gone
     C        A#             F
Now hey ho, live it up for today! 
         C         A#      
Hey hey hey-ho, now don't you run, 
    F
No need to be No. 1, 
C                  A#
Relax, hear what I say, 
                F
You'll find your way, hey-ho anyway, 
                    C          A#                                             
Now live it up - say, hey ho come on run, 
F
Take the cake, before it's gone
     C        A#             F
Now hey ho, live it up for today! 
         C         A#      
Hey hey hey-ho, now don't you run, 
    F
No need to be No. 1, 
C                  A#
Relax, hear what I say, 
                F
You'll find your way, hey-ho anyway, 
                    C      
Now live it up for today-ho, 
A#            F
Live It Up! Hey ho - Live It Up! 
C
Hey-ho
A#            F
Live It Up! Hey ho - Live It Up!
C         A#           F
Hey-ho  Live It Up! Hey ho - Live It Up! 
C
Hey-ho
A#            F
Live It Up! Hey ho - Live It Up!
C
Hey-ho
A#            F
Live It Up! Hey ho - Live It Up!
C         A#           F
Hey-ho  Live It Up! Hey ho - Live It Up!


************************************

| h  Hammer-on
| p  Pull-off

************************************
Suggest correction
Give kudos to tab author, rate the tab!
1 2 3 4 5
comments
print report bad tab
guest
You may want to rate the tab now too:
select rating
Wanna post a correction for this tab? Suggest correction