Oops, an error
Loading. Please wait.

My Way Chords

13 views 9 this week
no commentswrite comment
1 2 3 4 5
3 more votes to show rating
add to favorites
launch autoscroll
font size
0
reset
transpose
0
reset
display chords
guitar tuner
Autoscroll
slow
fast
+/-
esc
set tempo
stop
Help us to improve Ultimate-Guitar.com Take our survey!
×
Author
Difficulty
intermediate
[Intro]
    Bm        A      Bm         D
e|--7-7-7-7-7--5----7-7-7-7-7--10--|
B|--7-7-7-7-7--5----7-7-7-7-7--10--|
G|--7-7-7-7-7--6----7-7-7-7-7--11--| x12
D|--9-9-9-9-9--7----9-9-9-9-9--12--|
A|--9-9-9-9-9--7----9-9-9-9-9--12--|
E|--7-7-7-7-7--5----7-7-7-7-7--10--|


[Verse 1]
 Bm                                              A                                         
Back on my wheels, hittin' the pedal and I'm heading
      E                           Bm
For -oh-  The next level and I'm shifting gear, pump it through
            A                  E
TheSteelheart, it's all right - for a little ride!



[Instrumental]
   Bm            A              E           Bm
e|----------------------------|------------------7-----7-|
B|----------------------------|------------------7-----7-|  
G|-4-4-----------2-2----------|------------------7-----7-|
D|-4-4--0h2p0----2-2--0h2p0---|-2-2-----0h2--9-9---9-9---|
A|-2-2--------2--0-0--------2-|-2-2-0h2------9-9---9-9---|
E|----------------------------|-0-0----------7-7---7-7---|



{Verse 2]
Bm                                       A
Chrome girls on my mud-flaps, I got my blue slacks
        E                                Bm
And my guitar in the back, well I'm the road-chief
                  A              E
And I believe that I'm, I'm on a power ride!

[Pre-Chorus]
       D                      A
I'm a starlight junkie and I follow the beam
       Bm
I'm a proud dude and I feel like a king.
              D                  A
I've got my mind made up, wanna ride my truck
       E                               F#
Got a run of luck and there ain't no stop, 'cause



[Chorus]
D        A
Hey! I'm doin't it my way-
          Bm              G         A    
I'm on a long way on the lonesome highway.
D          A
Yeah! I'm doin' it my way -
 Bm                G         A     D
It's my way and I'm doin' it every day.
               A                Bm         G     A
I know it's a long way - but I must say, I don't care!
D       A                    Bm             G       
Hey! My life is a highway - night or day -
      A
I'm doin' 


[Instrumental]
   Bm            A              E           Bm
e|----------------------------|------------------7-----7-|
B|----------------------------|------------------7-----7-|  
G|-4-4-----------2-2----------|------------------7-----7-|
D|-4-4--0h2p0----2-2--0h2p0---|-2-2-----0h2--9-9---9-9---|
A|-2-2--------2--0-0--------2-|-2-2-0h2------9-9---9-9---|
E|----------------------------|-0-0----------7-7---7-7---|
it My Way!


[Verse 3]
Bm                                 A
Hey, that's what I want y'all! Wanna reach a new
                E              Bm    
Highlight-I'll never look back! Let me tell you my way is clear,
A                                 E
I got a new life starting right here.
Bm                                       A
To the max on the long track, I'm going hog-wild
        E                   Bm
Like a rip-tide. I'm on a revolution - that's my
         A                                     E
Solution,Pitch black night, yeah I follow the lights.



[Pre-Chorus]
        D                   A
I'm a diamond fellow and I follow my dream,
   Bm
A real gone daddy and I'm doin' my things!
             D                A
I've got my mind made up, it's me and my truck,
       E                            F#
Got a run of lick and there ain't no stop, 'cause...



[Chorus]
D        A
Hey! I'm doin't it my way-
          Bm              G         A    
I'm on a long way on the lonesome highway.
D          A
Yeah! I'm doin' it my way -
 Bm                G         A     D
It's my way and I'm doin' it every day.
               A                Bm         G     A
I know it's a long way - but I must say, I don't care!
D        A                  Bm                          
Hey! My life is a highway - night or day -
G      A
 I'm doin' 

  Bm              A              E           Bm
e|----------------------------|------------------7-----7-|
B|----------------------------|------------------7-----7-|  
G|-4-4-----------2-2----------|------------------7-----7-|
D|-4-4--0h2p0----2-2--0h2p0---|-2-2-----0h2--9-9---9-9---|
A|-2-2--------2--0-0--------2-|-2-2-0h2------9-9---9-9---|
E|----------------------------|-0-0----------7-7---7-7---|
it My Way!

   Bm            A              E           Bm
e|----------------------------|------------------7-----7-|
B|----------------------------|------------------7-----7-|  
G|-4-4-----------2-2----------|------------------7-----7-|
D|-4-4--0h2p0----2-2--0h2p0---|-2-2-----0h2--9-9---9-9---|
A|-2-2--------2--0-0--------2-|-2-2-0h2------9-9---9-9---|
E|----------------------------|-0-0----------7-7---7-7---|



[Instrumental-Harp]
   Bm            A          E                 Bm
e|-0h2-0--0h2-0---------------------0---0h2-0---0h2~-----|
B|------3-------3-0-0-3p0h3-0--0-0h3---3------3------3\0-|
G|-------------------------------------------------------|
D|-------------------------------------------------------|
A|-------------------------------------------------------|
E|-------------------------------------------------------|


[Bridge]
Bm                       A
My truck o' luck, here I go go -
E                               A     Bm            
Yeah down the road, turn on my turbo.
                             A
My truck o' luck' s a crowd pleaser,
E                            A     Bm
Hey folks, I'm the highway caesar!
                            A
My trucks o' luck, here I come,
E                       A   Bm
That's sure where I belong!
                    A
I' got the highway fever,
E                        A
Yeah baby, I'm a true believer

       D                      E
I'm a diamond daddy and it's time to shine,
    Bm
My damn good truck makes the world all mine!
             D                  E
I've got my mind made up, yeah I wanna rock,
     F#
Got a run of luck and there ain't no stop...



[Chorus]
D        A
Hey! I'm doin't it my way-
          Bm              G         A    
I'm on a long way on the lonesome highway.
D          A
Yeah! I'm doin' it my way -
 Bm                G         A     D
It's my way and I'm doin' it every day.
               A                Bm         G     A
I know it's a long way - but I must say, I don't care!
D        A                  Bm       
Hey! My life is a highway - night or day -
G       A
   I'm doin' 
 
 Bm              A              E           Bm
e|----------------------------|------------------7-----7-|
B|----------------------------|------------------7-----7-|  
G|-4-4-----------2-2----------|------------------7-----7-|
D|-4-4--0h2p0----2-2--0h2p0---|-2-2-----0h2--9-9---9-9---|
A|-2-2--------2--0-0--------2-|-2-2-0h2------9-9---9-9---|
E|----------------------------|-0-0----------7-7---7-7---|
it My Way!                      My way!

 Bm              A              E           Bm
e|----------------------------|------------------7-----7-|
B|----------------------------|------------------7-----7-|  
G|-4-4-----------2-2----------|------------------7-----7-|
D|-4-4--0h2p0----2-2--0h2p0---|-2-2-----0h2--9-9---9-9---|
A|-2-2--------2--0-0--------2-|-2-2-0h2------9-9---9-9---|
E|----------------------------|-0-0----------7-7---7-7---|
it My Way!                      My way!

************************************

| h  Hammer-on
| p  Pull-off
| ~  Vibrato
| \  Slide down

************************************
Suggest correction
Give kudos to tab author, rate the tab!
1 2 3 4 5
comments
print report bad tab
guest
You may want to rate the tab now too:
select rating
Wanna post a correction for this tab? Suggest correction