Oops, an error
Loading. Please wait.

Riding High Singing Low Chords

13 views 3 this week
no commentswrite comment
1 2 3 4 5
3 more votes to show rating
add to favorites
launch autoscroll
font size
0
reset
transpose
0
reset
simplify chords
display chords
guitar tuner
Autoscroll
slow
fast
+/-
esc
set tempo
stop
Help us to improve Ultimate-Guitar.com Take our survey!
×
Author
Difficulty
intermediate
[Intro]
    D/A                      D/A
e|-------------------------|------------------------|
H|-------------------------|------------------------|
G|-------------------------|------------------------|
D|--0-0----0----0-0----0---|-0-0----0----0-0----0---|
A|--0-0--2---2--0-0--2---2-|-0-0--2---2--0-0--2---2-|
E|-------------------------|------------------------|

    D/A                      G  
e|-------------------------|------------------------|
H|-------------------------|------------------------|
G|-------------------------|-2-2--0---0--2-2--0---0-|
D|--0-0----0----0-0----0---|-0-0----4----0-0----4---|
A|--0-0--2---2--0-0--2---2-|------------------------|
E|-------------------------|------------------------|
   D/A                      A           G             D/A
e|-------------------------|------------------------|--------------|
H|-------------------------|------------------------|--------------|
G|---------------------2-0-|-2-2-0---0--------------|-----0--------|
D|--0-0----0----0-0--------|-0-0---4-----0-0----0---|-0-0---4-2-0--|
A|--0-0--2---2--0-0--2-----|-------------0-0--2---2-|-0-0-------0--|
E|-------------------------|------------------------|--------------|


[Verse 1]
                Dm                   
Well it's the kinda dance I wanna do with
Bb                C              Dm             
 Yeah, it's the kinda dance I wanna do with you
Bb                            C      Dm
Cause you're the - the only one I'm yearning for,
                          Bb
Cause you're the jigging queen
                  A
You sure got the kick and a freaky attitude!

          Dm       
Well, I'm going down town to jig it
Bb           C          Dm
Yeah jig-a-jig-a-jump-a-waka-turn it,
           Bb                   C                     
Turn it a loose, I'm blowing the fuse,
            Dm                Bb
I grab my queen, we dance away our blues,
     A
Hey babe, you got a freaky attitude.


[Chorus]
Bb  C     Dm       C
Ri-ding high, singing low
Bb    C  Dm        C
Face to face, toe to toe
Bb    C   Dm                   C     Dm
Ri-ding high, jig and jive, let it flow!
         Bb        C
Ri-ding high, singing low
Dm        Bb        C   Dm          
 Ri-ding high, singing low.


[Instrumental]
   D       C   G         D                      C     G    D         A
e|-----------------|-------------------|-----------------|------------------|
H|-----------------|-------------------|-----0-1-1-0-----|------------------|
G|-----------------|-------------------|--2----------2-0-|---2--------2-2-2-|
D|--0--------------|-------------------|--0--------------|-4----------2-2-2-|
A|--0---2-3--3-2-0-|-0-------0-------0-|-----------------|-----0p20---------|
E|-----------------|---3-2-----0h2-----|-----------------|------------------|
               G           D/A         
e|-----------------------|--------------|
H|-----------------------|--------------|
G|--2-0-----0------------|------0-------|
D|-------4----------0----|--4-4---4-0-0-|
A|------------0-0-2---2--|------------0-|
E|-----------------------|--------------|


[Verse 2]
               Dm     
Oh well now everybody's jumping around is
 Bb       C             Dm
Is in a motion, all the people on the floor are in a
Bb      C            Dm                  Bb
In a commotion, ride high, sing low, go go,
                       A
You're my queen, you sure got the kicks and a freaky attitude.

Dm
People gather 'round and join us,
Bb         C             Dm
Don't hesitate to check out the jiggin' jive,
        Bb      C       
Jump, hog-wild dance steps,
Dm                       Bb             C
Now grab your queen or king and let it swing,
        A
Get the kick with a freaky attitude...


[Chorus]
Bb  C     Dm       C
Ri-ding high, singing low
Bb    C  Dm        C
Face to face, toe to toe
Bb    C   Dm                   C     Dm
Ri-ding high, jig and jive, let it flow!
         Bb        C
Ri-ding high, singing low
Dm        Bb        C   Dm          
 Ri-ding high, singing low.


[Instrumental]
   D/A
e|-------------------------|------------------------|
H|-------------------------|------------------------|
G|-------------------------|------------------------|
D|--0-0----0----0-0----0---|-0-0----0----0-0----0---|
A|--0-0--2---2--0-0--2---2-|-0-0--2---2--0-0--2---2-|
E|-------------------------|------------------------|
    G                       D/A
e|------------------------|------------------------|
H|------------------------|------------------------|
G|-2-2--0---0--2-2--0---0-|------------------------|
D|-0-0----4----0-0----4---|-0-0----0----0-0---0----|
A|------------------------|-0-0--2---2--0-0--2---2-|
E|------------------------|------------------------|
    G                       D
e|------------------------|----------------|
H|------------------------|----------------|
G|-2-2--0---0-------------|-2-2-0----------|
D|-0-0----4----0-0---0----|-------4-0-0----|
A|-----------------2--2---|-----------0----|
E|------------------------|----------------|


[Chorus]
Bb  C     Dm       C
Ri-ding high, singing low
Bb    C  Dm        C
Face to face, toe to toe
Bb    C   Dm                   C     Dm
Ri-ding high, jig and jive, let it flow!
         Bb        C
Ri-ding high, singing low
Dm        Bb        C   Dm          
 Ri-ding high, singing low.

Bb  C     Dm       C
Ri-ding high, singing low
Bb    C  Dm        C
Face to face, toe to toe
Bb    C   Dm                   C     Dm
Ri-ding high, jig and jive, let it flow!
         Bb        C
Ri-ding high, singing low
Dm        Bb        C   Dm          
 Ri-ding high, singing low.

A / G / A / Bb / F / G / Dm 
Suggest correction
Give kudos to tab author, rate the tab!
1 2 3 4 5
comments
print report bad tab
guest
You may want to rate the tab now too:
select rating
Wanna post a correction for this tab? Suggest correction