Oops, an error
Loading. Please wait.

Sex On Legs Chords

22 views 9 this week
no commentswrite comment
1 2 3 4 5
3 more votes to show rating
add to favorites
launch autoscroll
font size
0
reset
transpose
0
reset
display chords
guitar tuner
Autoscroll
slow
fast
+/-
esc
set tempo
stop
Help us to improve Ultimate-Guitar.com Take our survey!
×
Author
Difficulty
intermediate
About this tab version
First version of the song. Was this info helpful? Yes No
[Intro]
              Dm        C         Bb      C
E|-----------|--------------------------------------|
B|-----------|--------------------------------------|
G|-----------|--------------------------------------|
D|--------3--|-0--0-3-0------3----------3-2-------3-|
A|------0----|----------3--3---3--1-0-1---------0---|
E|-----------|--------------------------------------|

     Dm       C         Bb          C
E|-----------------------------------------|
B|-----------------------------------------|
G|-----------------------------------------|
D|---0--0-3-0------3----------3~---2-------|
A|------------3--3---3--1-0-1--------------|
E|-----------------------------------------|

    Dm        C         Bb      C
E|-----------------------------------------|
B|-----------------------------------------|
G|-----------------------------------------|
D|---0--0-3-0------3----------3-2-----3----|
A|------------3--3---3--1-0-1-------0------|
E|-----------------------------------------|

  Dm          C        Bb          C
E|-----------------------------------------|
B|-----------------------------------------|
G|-----------------------------------------|
D|---0--0-3-0------3----------3~---2-------|
A|------------3--3---3--1-0-1--------------|
E|-----------------------------------------|

[Chorus]
        Dm         C         Bb     C                    Dm
Sex on legs - one, two, baby I want you [I'll drop down dead]
        C           Bb 
Three, four, right on the floor
C       Dm         C                 Bb
Sex on legs - five, six, play your tricks
         C          Dm
And I'll drop down dead - Mhhrr, you're sex on legs

[Verse 1]
 Dm         C           Bb   C          Dm      C  Bb
Don't stop to move this way - I'm on my  -  knees!
C         Dm         C         Bb      C        Dm   C   Bb   A
  I can't resist no more, oh baby you shot me down.
             Bb           C           Bb       C
Ain't got no bulletproof heart, you ring my alarms,
Dm (stop)                Bb     C          Dm
You've got some magical working charms.
                                  (Sex on legs)

[Chorus]
         C         Bb     C                    Dm
 - one, two, baby I want you [I'll drop down dead]
        C           Bb 
Three, four, right on the floor
C       Dm         C                 Bb
Sex on legs - five, six, play your tricks
         C          Dm
And I'll drop down dead - Mhhrr, you're sex on legs

[Verse 2]
Dm             C         Bb   
Don't stop to move this way.
              C            Dm      C   Bb  C
The way you sway takes my breath away
       Dm         C            Bb
Your frequency's reaching out for me,
      C            Dm  C  Bb  A
Transmitting your energy.
         Bb         C         Bb        C
You're blowing my fuse, baby gimme the news,
Dm (stop)             Bb      C        Dm
Keep sending out your magical curse...
                              (Sex on legs)

[Chorus]
         C         Bb     C                    Dm
 - one, two, baby I want you [I'll drop down dead]
        C           Bb 
Three, four, right on the floor
C       Dm         C                 Bb
Sex on legs - five, six, play your tricks
         C          Dm
And I'll drop down dead - Mhhrr, you're sex on legs

[Instrumental]
Dm C   Bb A

   Dm  C  Bb  C       Dm  C        Bb    C  Dm   C   Bb      C      
e|-------------------|------------------------------------------------|
B|-------------------|------------------------------------------------|
G|-------------------|-------0-----------0----0---0-2-2---------------|
D|-3p0h3~--------5\3-|-0-0-3---3-----0-3--3/7---3-------3-0---3-0-3-3-|
A|-------------------|------------------------------------------------|
E|-------------------|------------------------------------------------|

  Dm     C   Bb     C       Dm  C  Bb     C          Dm  C  Bb   C         Dm      
e|------------------------|------------------------|---------------------|------|
B|------------------------|------------------------|---------------------|------|
G|---2h3p2----------------|------------------------|--2--0--1---0---0----|-2~---|
D|-0--------------------0-|-3-2-0--3-0-3---0---3-0-|----------3---3----3-|------|
A|-----------------0-3----|------------------------|---------------------|------|
E|------------------------|------------------------|---------------------|------|

[Verse 3]
Dm        C         Bb      C
Hey, now baby stay, make my day.
            Dm        C     Bb  C
I like the games you play.
       Dm        C               Bb 
I look back, to see if you look back.
    C         Dm           C    Bb  C
To see if I'm looking your way.
         Bb         C            Bb        C
Oh gimme gimme the thrills, come on in my arms,
 Dm[stop]                Bb     C        Dm
I will surrender to your magical charms, ohh
                                 (Sex on legs)

[Chorus]
         C         Bb     C                    Dm
 - one, two, baby I want you [I'll drop down dead]
        C           Bb 
Three, four, right on the floor
C       Dm         C                 Bb
Sex on legs - five, six, play your tricks
         C          Dm
And I'll drop down dead 
         C         Bb     C                    Dm
one, two, baby I want you [I'll drop down dead]
        C           Bb 
Three, four, right on the floor
C       Dm         C                 Bb
Sex on legs - five, six, play your tricks
         C          Dm (stop)
And I'll drop down dead - Oh you're sex on legs

[Outro]
e|-------------------------------10-|
B|-------------------------------10-|
G|-------------3-2----2-0--------10-|
D|-------2-3-2-----2------3-2-0-----|
A|-0-3-0----------------------------|
E|-------------------------------10-|

************************************

| ~  Vibrato
| h  Hammer-on
| p  Pull-off
| /  Slide up
| \  Slide down

************************************
Suggest correction
Give kudos to tab author, rate the tab!
1 2 3 4 5
comments
print report bad tab
guest
You may want to rate the tab now too:
select rating
Wanna post a correction for this tab? Suggest correction