Oops, an error
Loading. Please wait.

Today Tomorrow Too Long Too Late Chords

67 views 9 this week
no commentswrite comment
1 2 3 4 5
2 more votes to show rating
add to favorites
launch autoscroll
font size
0
reset
transpose
0
reset
simplify chords
display chords
guitar tuner
Autoscroll
slow
fast
+/-
esc
set tempo
stop
Help us to improve Ultimate-Guitar.com Take our survey!
×
Author
Difficulty
Tuning
intermediate
E A D G B E
About this tab version
It is the first version of the song. Was this info helpful? Yes No
You can play the Intro instead of the Chords in the parts [Verse 1] and [Verse 2], too. 

[Intro]

   G               C
e|---------------------------|
h|-------0---------1-1-------|
g|---------------------------|    :||(6x)
d|----0----0h2----------2p0--|
a|---------------------------|
E|-3-------------------------|   



[Verse 1] 
        G    C         G    C 
Since I left - I feel right
        G    C           G        C  
And I'm high - above your low-down lies  
           G          C      G         C
'Cause the more we try, the less we fly
        G             C           G         C
When I close my eyes I see through you disguise

[Pre-Chorus]
     D#    A#         F          C
The more I give, the less I can take
      D#    A#          F         C
The lower I feel, the higher the stakes


[Chorus]
A#        A#          F         C
Today, tomorrow, too long, too late

         G              C          A#    C
    e|---------------------------|----1-----------|
    h|-------0---------1-1-------|----3-----------|
    g|---------------------------|----3-------5-5-|
    d|----0----0h2----------2p0--|----3---3p5-----|
    a|---------------------------|-1--1-----------|
    E|-3-------------------------|----------------| 
I'm sorry babe

      A#      A#     F         C 
Too much to blame, too low our aim
       
       G              C          A#    C
    e|---------------------------|----1-----------|
    h|-------0---------1-1-------|----3-----------|
    g|---------------------------|----3-------5-5-|
    d|----0----0h2----------2p0--|----3---3p5-----|
    a|---------------------------|-1--1-----------|
    E|-3-------------------------|----------------| 
It is such a shame


[Pre-Chorus]    
    D#      A#         F     C   
The more I learn, the less I know
     D#       A#         F     C
The higher I reach, the lower I go


[Chorus]
  A#                  F
Today, tomorrow, too long, too late
     C/G  
I'm sorry babe
     A#                 F
Too small the gain, too much the pain
       C/G
It is such a shame

[Instrumental]
       G              C          A#    C
e|---------------------------|----1-----------|
h|-------0---------1-1-------|----3-----------|
g|---------------------------|----3-------5-5-|   :|| (2x)
d|----0----0h2----------2p0--|----3---3p5-----|
a|---------------------------|-1--1-----------|
E|-3-------------------------|----------------| 

[Verse 2]
      G    C       G        C
Look ahead,  don't look back
      G           C          G      C    
Don't hesitate or turn on a one way track
          G       C         G           C
Cause the more we run, the less we move on
    G       C              G         C   
So let go, baby, don't you think so


[Pre-Chorus]
         D#       A#         F            C
Cause the more you get, the less you can share
     D#           A#       F       C
The more I could have, the less I care

[Chorus]
  A#                   F    
Today, tomorrow, too long, too late
      C/G
I'm sorry babe
      A#                F
Too much in vain, too low the flame
        C/G
It is such a shame

[Pre-Chours]
          D#      A#           F        C
Well the more we discuss, the less we agree
     D#      A#        F           C/G    
The more we look, the less we can see


[Instrumental]
A#  F  C  C (2x)

[Pre-Chorus]
     D#       A#           F             C
The more we discern, the less we're the same
     D#      A#         F       C   
The less we agree, the more we gain
     D#         A#         F         C
The deeper our faith, the higher the wall
      D#        A#        F          C
The harder the bang, the softer the fall

[Chorus]
  A#                   F    
Today, tomorrow, too long, too late
      C/G
I'm sorry babe
      A#                F
Too small the gain, too much the pain
        C/G
It is such a shame
  A#                   F    
Today, tomorrow, too long, too late
      C/G
I'm sorry babe
      A#                F
Too much to say, too less to play
          C/G
It is so passé

[Outro]
       G              C          A#    C
e|---------------------------|----1-----------|
h|-------0---------1-1-------|----3-----------|
g|---------------------------|----3-------5-5-|   :|| (5x)
d|----0----0h2----------2p0--|----3---3p5-----|
a|---------------------------|-1--1-----------|
E|-3-------------------------|----------------| 

           G              C          A#    C   G
e|---------------------------|----1-------------3-|
h|-------0---------1-1-------|----3-------------0-|
g|---------------------------|----3-------5-5---0-|   
d|----0----0h2----------2p0--|----3---3p5-----3-0-|
a|---------------------------|-1--1-------------2-|
E|-3-------------------------|------------------3-| 
Suggest correction
Give kudos to tab author, rate the tab!
1 2 3 4 5
comments
print report bad tab
guest
You may want to rate the tab now too:
select rating
Wanna post a correction for this tab? Suggest correction