Oops, an error
Loading. Please wait.

Fast Times bass

version 1
version 1

Whole song

Interactive

255 views 1 this week
no commentswrite comment
1 2 3 4 5
3 more votes to show rating
add to favorites
×
Save as Personal and add changes to this tab that will be seen only by you. Learn more ›
×
You can save this tab as Personal to edit and correct it or add notes. All changes will be seen only by you. Learn more »
launch autoscroll
font size
0
reset
guitar tuner
edit
Autoscroll
slow
fast
+/-
esc
set tempo
stop
Title: Fast Times
Artist: Bouncing Souls
Album: Comet (2012)
Tempo = 100
Electric Bass

Legend
L - tied note
x - dead note
h - hammer on/pull off
b - bend
s - slide
~ - vibrato
g - ghost note
> - accentuated note
t - trill
M - palm mute
. - staccato
P - popping (bass)
S - slapping (bass)
+ - tapping
W - wide vibrato
< - fade in
w - whammy bar
= - tremolo picking
v - brush up
^ - brush down
V - pick stroke up
n - pick stroke down


G |----|----------------|----------------------------|----------------|
D |----|--2--1----------|----------------------------|--2--1----------|
A |----|--------4--2----|----------------------------|--------4--2----|
E |----|----------------|--2--2--2--2--2--2--2--2----|----------------|


----------------------------|-------|----|----|----|
----------------------------|-------|----|----|----|
----------------------------|--2----|----|----|----|
--2--2--2--2--2--2--2--2----|-------|----|----|----|


----------------------------------------------------|
----------------------------------------------------|
--2--2--2--2--2--2--2--2----------------------------|
--------------------------0--0--0--0--0--0--0--0----|


----------------------------------------------------|
----------------------------------------------------|
----------------------------------------------------|
--2--2--2--2--2--2--2--2--2--2--2--2--2--2--2--2----|


----------------------------------------------------|
----------------------------------------------------|
--2--2--2--2--2--2--2--2----------------------------|
--------------------------0--0--0--0--0--0--0--0----|


----------------------------------------------------|
----------------------------------------------------|
----------------------------------------------------|
--2--2--2--2--2--2--2--2--2--2--2--2--2--2--2--2----|


----------------------------------------------------|
--2--2--2--2--2--2--2--2--2--2--2--2--2--2--2--2----|
----------------------------------------------------|
----------------------------------------------------|


----------------------------------------------------|
----------------------------------------------------|
----------------------------------------------------|
--2--2--2--2--2--2--2--2--2--2--2--2--2--2--2--2----|


----------------------------------------------------|
--2--2--2--2--2--2--2--2--2--2--2--2--2--2--2--2----|
----------------------------------------------------|
----------------------------------------------------|


----------------------------------------------------|
----------------------------------------------------|
----------------------------------------------------|
--2--2--2--2--2--2--2--2--2--2--2--2--2--2--2--2----|


--------------------------------------4-------------|
--------------4-----------2--2--2--2--------2-------|
--2--2--2--2--------2-------------------------------|
----------------------------------------------------|


--------------6-----------------------6--6--6--6----|
--4--4--4--4--------4-----4-----4-------------------|
----------------------------------------------------|
----------------------------------------------------|


----------------------------------------------------|
--------------------------------------9-------------|
--------------9-----------7--7--7--7--------7-------|
--7--7--7--7--------7-------------------------------|


----------------------------------------------------|
--------------11----------------------11-11-11-11---|
--9--9--9--9--------9-----9-----9-------------------|
----------------------------------------------------|


----------------------------------------------------|
--------------------------------------9-------------|
--------------9-----------7--7--7--7--------7-------|
--7--7--7--7--------7-------------------------------|


----------------------------------------------------|
--------------11----------------------11-11-11-11---|
--9--9--9--9--------9-----9-----9-------------------|
----------------------------------------------------|


----------------------------------------------------|
--------------------------------------9-------------|
--------------9-----------7--7--7--7--------7-------|
--7--7--7--7--------7-------------------------------|


----------------------------------------------------|
--------------11----------------------11-11-11-11---|
--9--9--9--9--------9-----9-----9-------------------|
----------------------------------------------------|


----------------------------------------------------|
----------------------------------------------------|
----------------------------------------------------|
--12-12-12-12-12-12-12-12-12-12-12-12-12-12-12-12---|


----------------------------------------------------|
----------------------------------------------------|
----------------------------------------------------|
--2--2--2--2--2--2--2--2--2--2--2--2--2--2--2--2----|


----------------------------------------------------|
--2--2--2--2--2--2--2--2--2--2--2--2--2--2--2--2----|
----------------------------------------------------|
----------------------------------------------------|


----------------------------------------------------|
----------------------------------------------------|
----------------------------------------------------|
--2--2--2--2--2--2--2--2--2--2--2--2--2--2--2--2----|


----------------------------------------------------|
----------------------------------------------------|
--2--2--2--2--2--2--2--2----------------------------|
--------------------------0--0--0--0--0--0--0--0----|


----------------------------------------------------|
----------------------------------------------------|
----------------------------------------------------|
--2--2--2--2--2--2--2--2--2--2--2--2--2--2--2--2----|


----------------------------------------------------|
----------------------------------------------------|
--2--2--2--2--2--2--2--2----------------------------|
--------------------------0--0--0--0--0--0--0--0----|


----------------------------------------------------|
----------------------------------------------------|
----------------------------------------------------|
--2--2--2--2--2--2--2--2--2--2--2--2--2--2--2--2----|


----------------------------------------------------|
----------------------------------------------------|
--2--2--2--2--2--2--2--2----------------------------|
--------------------------0--0--0--0--0--0--0--0----|


----------------------------------------------------|
----------------------------------------------------|
----------------------------------------------------|
--2--2--2--2--2--2--2--2--2--2--2--2--2--2--2--2----|


----------------------------------------------------|
----------------------------------------------------|
--2--2--2--2--2--2--2--2----------------------------|
--------------------------0--0--0--0--0--0--0--0----|


----------------------------------------------------|----------------|
----------------------------------------------------|--2--1----------|
----------------------------------------------------|--------4--2----|
--2--2--2--2--2--2--2--2--2--2--2--2--2--2--2--2----|----------------|


----------------------------|----------------|----------------------------|
----------------------------|--2--1----------|----------------------------|
----------------------------|--------4--2----|----------------------------|
--2--2--2--2--2--2--2--2----|----------------|--2--2--2--2--2--2--2--2----|


-------|----------------------------------------------------|
-------|----------------------------------------------------|
-------|----------------------------------------------------|
--2----|--2--2--2--2--2--2--2--2--2--2--2--2--2--2--2--2----|


----------------------------------------------------|
----------------------------------------------------|
--2--2--2--2--2--2--2--2----------------------------|
--------------------------0--0--0--0--0--0--0--0----|


----------------------------------------------------|
----------------------------------------------------|
----------------------------------------------------|
--2--2--2--2--2--2--2--2--2--2--2--2--2--2--2--2----|


----------------------------------------------------|
----------------------------------------------------|
--------------------------2--2--2--2--2--2--2--2----|
--0--0--0--0--0--0--0--0----------------------------|


----------------------------------------------------|
----------------------------------------------------|
----------------------------------------------------|
--2--2--2--2--2--2--2--2--2--2--2--2--2--2--2--2----|


----------------------------------------------------|
----------------------------------------------------|
--------------------------2--2--2--2--2--2--2--2----|
--0--0--0--0--0--0--0--0----------------------------|


----------------------------------------------------|-------|----|----|----|
----------------------------------------------------|-------|----|----|----|
----------------------------------------------------|--2----|----|----|----|
--2--2--2--2--2--2--2--2--2--2--2--2--2--2--2--2----|-------|----|----|----|


----------------------------------------------------|
----------------------------------------------------|
--2--2--2--2--2--2--2--2----------------------------|
--------------------------0--0--0--0--0--0--0--0----|


----------------------------------------------------|
----------------------------------------------------|
----------------------------------------------------|
--2--2--2--2--2--2--2--2--2--2--2--2--2--2--2--2----|


----------------------------------------------------|
----------------------------------------------------|
--2--2--2--2--2--2--2--2----------------------------|
--------------------------0--0--0--0--0--0--0--0----|


----------------------------------------------------|
----------------------------------------------------|
----------------------------------------------------|
--2--2--2--2--2--2--2--2--2--2--2--2--2--2--2--2----|


----------------------------------------------------|
--2--2--2--2--2--2--2--2--2--2--2--2--2--2--2--2----|
----------------------------------------------------|
----------------------------------------------------|


----------------------------------------------------|
----------------------------------------------------|
----------------------------------------------------|
--2--2--2--2--2--2--2--2--2--2--2--2--2--2--2--2----|


----------------------------------------------------|
--2--2--2--2--2--2--2--2--2--2--2--2--2--2--2--2----|
----------------------------------------------------|
----------------------------------------------------|


----------------------------------------------------|
----------------------------------------------------|
----------------------------------------------------|
--2--2--2--2--2--2--2--2--2--2--2--2--2--2--2--2----|


----------------------------------------------------|
----------------------------------------------------|
--2--2--2--2--2--2--2--2----------------------------|
--------------------------0--0--0--0--0--0--0--0----|


----------------------------------------------------|
----------------------------------------------------|
----------------------------------------------------|
--2--2--2--2--2--2--2--2--2--2--2--2--2--2--2--2----|


----------------------------------------------------|
----------------------------------------------------|
--2--2--2--2--2--2--2--2----------------------------|
--------------------------0--0--0--0--0--0--0--0----|


----------------------------------------------------|
----------------------------------------------------|
----------------------------------------------------|
--2--2--2--2--2--2--2--2--2--2--2--2--2--2--2--2----|


----------------------------------------------------|
----------------------------------------------------|
--2--2--2--2--2--2--2--2----------------------------|
--------------------------0--0--0--0--0--0--0--0----|


----------------------------------------------------|
----------------------------------------------------|
----------------------------------------------------|
--2--2--2--2--2--2--2--2--2--2--2--2--2--2--2--2----|


----------------------------------------------------|
----------------------------------------------------|
--2--2--2--2--2--2--2--2----------------------------|
--------------------------0--0--0--0--0--0--0--0----|


----------------------------------------------------|----------------|
----------------------------------------------------|--2--1----------|
----------------------------------------------------|--------4--2----|
--2--2--2--2--2--2--2--2--2--2--2--2--2--2--2--2----|----------------|


----------------------------|----------------|----------------------------|
----------------------------|--2--1----------|----------------------------|
----------------------------|--------4--2----|----------------------------|
--2--2--2--2--2--2--2--2----|----------------|--2--2--2--2--2--2--2--2----|


----------------|----------------------------|----------------|
--2--1----------|----------------------------|--2--1----------|
--------4--2----|----------------------------|--------4--2----|
----------------|--2--2--2--2--2--2--2--2----|----------------|


----------------------------|----------------|-------|-------||
----------------------------|--------4-------|-------|-------||
----------------------------|--2--------2L---|--2L---|--2----||
--2--2--2--2--2--2--2--2----|----------------|-------|-------||

            
            
Suggest correction
Creating personal tab
Creating personal tab
You can edit any tab online and save it as your Personal.

You can edit, replace or remove any tab part or add personal notes – all changes will be seen only by you.

Personal tabs can be accessed anytime from any device, even offline.
Learn more »
Give kudos to tab author, rate the tab!
1 2 3 4 5
comments
print report bad tab
guest
You may want to rate the tab now too:
select rating
Wanna post a correction for this tab? Suggest correction