Oops, an error
Loading. Please wait.

Im From There bass

version 2
version 2

Whole song

216 views 1 this week
no commentswrite comment
1 2 3 4 5
3 more votes to show rating
add to favorites
×
Save as Personal and add changes to this tab that will be seen only by you. Learn more ›
×
You can save this tab as Personal to edit and correct it or add notes. All changes will be seen only by you. Learn more »
launch autoscroll
font size
0
reset
guitar tuner
edit
Autoscroll
slow
fast
+/-
esc
set tempo
stop
Author
Difficulty
----------------------------------------------------------------------------
                           THE BOUNCING SOULS
----------------------------------------------------------------------------
                          Album: Anchors Aweigh
                        Song Title: I'm From there

This song is Dope Sick! You will have to listsen to the song to figure out the timeing. 
far as the Tabing goes it is pretty correct. If you have any changes fill free to e-mail 
at richie_h2o@hotmail.com


*Intro
 00:25

E --------------------------------------------------------------------------|
A --------------------------------------------------------------------------|
D -----------------------------------------------------------10--10--9--7---|
G --12--14--12--10--9--9--10--9--7--10--9--9--7--5--4--5--7-----------------|

E --------------------------------------------------------------------------|
A --------------------------------------------------------------------------|
D --5-----------------------------------------------------------------------|
G -----9--10--9--7--10--9--9--7--5--4--2--0---------------------------------|

 00:49

E ---------------------------------------------------------------------------|
A --3333333333--------------------------------------------------------333333-|
D ----------------7777777777----5555555555----3333333333----222222-----------|
G ---------------------------------------------------------------------------|

E --------------------------------------------------------------------------|
A --3333333333--------------------------------------------------------------|
D ----------------7777777777----5555555555----3333333333----22222-----------|
G --------------------------------------------------------------------------|

*Verse
 1:13

E ---------------------------------------------------------------------33333-|
A --3333333333----0000000000----8888888888----7777777777----5555----33-------|
D ---------------------------------------------------------------------------|
G ---------------------------------------------------------------------------|

E -333333333----------------------------------------------------------------|
A ---------------3333333333----0000000000----888888888----77777777----55555-|
D --------------------------------------------------------------------------|
G --------------------------------------------------------------------------|

E ---3333333----------------------------------------------------------------|
A -3------------------------------------------------------------------------|
D --------------------------------------------------------------------------|
G --------------------------------------------------------------------------|

*Chorus
 1:36

E --------------------------------------------------------------------------|
A --------------------------------------------------------------------------|
D ---------------------------------------------55555555555555---------------|
G ----5/17--17/5--5/17--17/5--5/17--17/5--5--0------------------------------|

*Second Verse
 1:48

E --------------------------------------------------------------------------|
A --3333333333-----------------------------------------33333333-------------|
D ----------------7777777777----55555555----3333333--2------------77777777--|
G --------------------------------------------------------------------------|

E --------------------------------------------------------------------------|
A ------------------------------------3333333333----------------------------|
D --10-10-10--5555555-----3333333--2--------------77777777--10-10-10--55555-|
G --------------------555---------------------------------------------------|

E --------------------------------------------------------------------------|
A --------------------3333333333----0000000000----8888888888----777777777---|
D -----33333333333-2--------------------------------------------------------|
G -555----------------------------------------------------------------------|

E -----------3333333333-----------------------------------------------------|
A --5555--3--------------333333333---00000000---88888888---777777777---5555-|
D --------------------------------------------------------------------------|
G --------------------------------------------------------------------------|

E ----33333333--------------------------------------------------------------|
A --3-----------------------------------------------------------------------|
D --------------------------------------------------------------------------|
G --------------------------------------------------------------------------|

*Second Chorus
 2:48

E --------------------------------------------------------------------------|
A --------------------------------------------------------------------------|
D ---------------------------------------5555555----------------------------|
G -5/17--17/5--5/17--17/5--5/17--17/5--0------------------------------------|

*Last Verse
 3:00

E -----------------------------------------|
A -3333333-------------------------  play--| x2
D ---------777777--555555--333333-2--------|
G -----------------------------------------|

E -----------------------------------------|
A -33333-----------------------------------|
D -------77777-10-10-10--55555-----33333-2-|    play till end of song
G -----------------------------555---------|

best band ever made

            
            
Suggest correction
Creating personal tab
Creating personal tab
You can edit any tab online and save it as your Personal.

You can edit, replace or remove any tab part or add personal notes – all changes will be seen only by you.

Personal tabs can be accessed anytime from any device, even offline.
Learn more »
Give kudos to tab author, rate the tab!
1 2 3 4 5
comments
print report bad tab
guest
You may want to rate the tab now too:
select rating
Wanna post a correction for this tab? Suggest correction