Oops, an error
Loading. Please wait.

Its Not The Heat Its The Humanity Bass Tab

1 view 1 this week
no commentswrite comment
1 2 3 4 5
3 more votes to show rating
add to favorites
launch autoscroll
font size
0
reset
guitar tuner
Autoscroll
slow
fast
+/-
esc
set tempo
stop
Help us to improve Ultimate-Guitar.com Take our survey!
×
Author
Difficulty
Intro
G|---------------------------------------------------------------------|
D|---------------------------------------------------------------------|
A|------------------2-2-2-2-2-2-2-2--0-0-0-0--2-2-2-2--7-7-7-7-7-7-7-7-|
E|---------------------------------------------------------------------|

[Verse]                                                              x3
G|---------------------------------------------------------------------|
D|---------------------------------------------------------------------|
A|-7-7-7-7-7-7-7-7--2-2-2-2-2-2-2-2--0-0-0-0--2-2-2-2--7-7-7-7-7-7-7-7-|
E|---------------------------------------------------------------------|

("Go, Pete Go!")
G|---------------------------------------------------------------------|
D|---6-9-6---6-9-6-----------------------------------------------------|
A|-7-------7----------6-9-6---6-9-6--0-0-0-0--2-2-2-2--7-7-7-7-7-7-7-7-|
E|------------------7-------7------------------------------------------|


[Verse 2]  ("It's Hot, It's Sexy...")                                                                  
G|---------------------------------------------------------------------|
D|---------------------------------------------------------------------|
A|-7-7-7-7-7-7-7-7--2-2-2-2-2-2-2-2--0-0-0-0--2-2-2-2--7-7-7-7-7-7-7-7-|
E|---------------------------------------------------------------------|

("It's So Hot I Can't Even Think...")
G|---------------------------------------------------------------------------------------|
D|---------------------------------------------------------------------------------------|
A|-7-7-7-7-7-7-7-7--2-2-2-2-2-2-2-2--0-0-0-0--2-2-2-2--0-0-0-0--2-2-2-2--7-7-7-7-7-7-7-7-|
E|---------------------------------------------------------------------------------------|

("My Balls Are Sticking To My Legs...")
G|---------------------------------------------------------------------------------------|
D|---------------------------------------------------------------------------------------|
A|-7-7-7-7-7-7-7-7--2-2-2-2-2-2-2-2--0-0-0-0--2-2-2-2--0-0-0-0--2-2-2-2--7-7-7-7-7-7-7-7-|
E|---------------------------------------------------------------------------------------|


[Solo]
G|---------------------------------------------------------------------|
D|---6-9-6---6-9-6-----------------------------------------------------|
A|-7-------7----------6-9-6---6-9-6--0-0-0-0--2-2-2-2--7-7-7-7-7-7-7-7-|
E|------------------7-------7------------------------------------------|

G|---------------------------------------------------------------------------------------|
D|---6-9-6---6-9-6-----------------------------------------------------------------------|
A|-7-------7----------6-9-6---6-9-6--0-0-0-0--2-2-2-2--0-0-0-0--2-2-2-2--7-7-7-7-7-7-7-7-|
E|------------------7-------7------------------------------------------------------------|


[Outro]                              ("It's Hot, Woah-oh, It's Hot, Woah-oh...")
G|-------------------------------------------------------------------------------------------------------|
D|-------------------------------------------------------------------------------------------------------|
A|-7-7-7-7-7-7-7-7--7-7-7-7-7-7-7-7--7-7-7-7-7-7-7-7--2-2-2-2-2-2-2-2--0-0-0-0--2-2-2-2--7-7-7-7-7-7-7-7-|
E|-------------------------------------------------------------------------------------------------------|

G|---------------------------------------------------------------------|
D|---6-9-6---6-9-6-----------------------------------------------------|
A|-7-------7----------6-9-6---6-9-6--0-0-0-0--2-2-2-2--7-7-7-7-7-7-7-7-|
E|------------------7-------7------------------------------------------|

G|-----------------------------------|---------------------------------------------------|
D|-----------------------------------|---------------------------------------------------|
A|-0-0-0-0--2-2-2-2--7-7-7-7-7-7-7-7-|--0-0-0-0--2-2-2-2--7-7-7-7-7-7-7-7--7----7--------|
E|-----------------------------------|---------------------------------------------------|
Suggest correction
Give kudos to tab author, rate the tab!
1 2 3 4 5
comments
print report bad tab
guest
You may want to rate the tab now too:
select rating
Wanna post a correction for this tab? Suggest correction