Oops, an error
Loading. Please wait.

Letter intro tab

version 1
version 1

Intro

Interactive

27,560 views 21 this week
3 commentsread comments
1 2 3 4 5
x 7
add to favorites
×
Save as Personal and add changes to this tab that will be seen only by you. Learn more ›
×
You can save this tab as Personal to edit and correct it or add notes. All changes will be seen only by you. Learn more »
launch autoscroll
font size
0
reset
how to read this tab
guitar tuner
edit
Autoscroll
slow
fast
+/-
esc
set tempo
stop
Author
Box Tops - The Letter

Tuning: Standard E A D G B e

e------------------------------------|
B------------------------------------|
G------------------------------------|
D-----------2--0---------------------|
A-----------------3--2---------------|
E--0--4------------------------------|

That's it! Just easy :-)

[Am][F]
[Am][D]
[Am][F]
[E7][Am]

(Chorus)
[C][G]
[F][C][G].[G]
[C][G]
[F][C][G]
[E7]


by: Beatsteack  Corrections, questions, comments: theultimatepsycho@gmx.net/
or icq: 158855445

            
            
Suggest correction
Creating personal tab
Creating personal tab
You can edit any tab online and save it as your Personal.

You can edit, replace or remove any tab part or add personal notes – all changes will be seen only by you.

Personal tabs can be accessed anytime from any device, even offline.
Learn more »
comments
print report bad tab
3 comments total.
+1 reply
Astaldo 82 Jun 19, 2006 07:13 AM

good, a little correction ;)
e------------------------------------|
B------------------------------------|
G------------------------------------|
D------------2--0--------------------|
A---------2--------3--2--------------|
E--0--4------------------------------|

0 reply
Beatsteak 25 Jul 06, 2006 01:12 AM

am arsch :-p

0 reply
axl rose 35 25 Dec 14, 2008 03:39 PM

cool

guest
You may want to rate the tab now too:
select rating
Wanna post a correction for this tab? Suggest correction