Oops, an error
Loading. Please wait.

Diamonds tab

1,070 views 1 this week
1 commentread comment
1 2 3 4 5
2 more votes to show rating
add to favorites
×
Save as Personal and add changes to this tab that will be seen only by you. Learn more ›
×
You can save this tab as Personal to edit and correct it or add notes. All changes will be seen only by you. Learn more »
launch autoscroll
font size
0
reset
how to read this tab
guitar tuner
edit
Autoscroll
slow
fast
+/-
esc
set tempo
stop
Author
Difficulty
-------------------------------------------------------------------------------
                             The Boxer Rebellion - Diamonds
-------------------------------------------------------------------------------
Tabbed by: Lincoln Fuller Hill
E-mail:Casper.105@icloud.com (No spam/junk please!)

Tuning: Standard tuning

This is my first tab, feel free to make your own. I only made this because this song is 
catchy, and no one
has tabbed it(yet), but enjoy!

INTRO: This is played in between the choruses and at the start.

e|---------------------------------------------------------------------------|
B|-------------8-8888-88-----------------------------------------------------|
G|---------5-----------------------------------------------------------------|
D|-------5-------------------------------------------------------------------|
A|---------------------------------------------------------------------------|
E|---------------------------------------------------------------------------|

Variation: the guitarist at every end of each bar will play the riff like this

e|---------------------------------------------------------------------------|
B|-------------8-8888/10\8---------------------------------------------------|
G|---------5-----------------------------------------------------------------|
D|-------5-------------------------------------------------------------------|
A|---------------------------------------------------------------------------|
E|---------------------------------------------------------------------------|
When the end of the song is sounding 'mystical' it goes like this:
e|---------------------------------------------------------------------------|
B|---------------11-10--------------11-10------------------------------------|
G|-------777-77--------------555-55------------------------------------------|
D|---------------------------------------------------------------------------|
A|---------------------------------------------------------------------------|
E|---------------------------------------------------------------------------|
And there is a slight variation on the outro:
e|---------------------------------------------------------------------------|
B|--------------11-13--------------------------------------------------------|
G|------777-77---------------------------------------------------------------|
D|---------------------------------------------------------------------------|
A|---------------------------------------------------------------------------|
E|---------------------------------------------------------------------------|
Then it is just one note to end off:
e|---------------------------------------------------------------------------|
B|----------------8888888888-------------------------------------------------|
G|---------------------------------------------------------------------------|
D|---------------------------------------------------------------------------|
A|---------------------------------------------------------------------------|
E|---------------------------------------------------------------------------|

Thanks for your time on this tab :)


************************************

| /   slide up
| \   slide down
| h   hammer-on
| p   pull-off
| ~   vibrato
| +   harmonic
| x   Mute note
| b   Bend
| pb  Pre-bend
| br  Bend release
| pbr Pre-bend release
| brb Bend release bend

************************************
Suggest correction
Creating personal tab
Creating personal tab
You can edit any tab online and save it as your Personal.

You can edit, replace or remove any tab part or add personal notes – all changes will be seen only by you.

Personal tabs can be accessed anytime from any device, even offline.
Learn more »
Give kudos to tab author, rate the tab!
1 2 3 4 5
comments
print report bad tab
1 comment total.
0 reply
crawfordj 10 Oct 07, 2016 09:30 PM

Try this on the neat little intro riff.
e|---------------------------------------------------------------------------|
B|-------------8-8888-88-----------------------------------------------------|
G|-------5--6-----------------------------------------------------------------|
D|--------------------------------------------------------------------------|
A|---------------------------------------------------------------------------|
E|---------------------------------------------------------------------------|

guest
You may want to rate the tab now too:
select rating
Wanna post a correction for this tab? Suggest correction