Oops, an error
Loading. Please wait.

Flashing Red Light Means Go Bass Tab

579 views 1 this week
no commentswrite comment
1 2 3 4 5
please rate
add to favorites
launch autoscroll
font size
0
reset
guitar tuner
Autoscroll
slow
fast
+/-
esc
set tempo
stop
Help us to improve Ultimate-Guitar.com Take our survey!
×
Author
guitarboy48 1,206
Track 1 off UNION by The Boxer Rebellion

Tuning: standard

bass comes in at 0:37 with guitar

0:37
----------------------------------------|
----------------------------------------|
-9-x16--7-x64-9-x16-12-x16-7-x16--------|
----------------------------------------|

0:50
----------------------------------------|
----------------------------------------|
-7-x16--9-x16-12-x16--7-x16-------------|          x2
----------------------------------------|

1:14
----------------------------|
----------------------------|
--9-x16----7-x48------------|
----------------------------|

1:27
-----------------------------------------------------|
-----------------------------------------------------|
-7-x32---12-x32---7-x32---12-x32---7-x32---12-x32----|
-----------------------------------------------------|

2:04
----------------------------------------------|
----------------------------------------------|
-7-x16--9-x16--12-x16--7-x16------------------|      x2
----------------------------------------------|

2:28
--------------------------------|
--------------------------------|
---7-x16---9-x16--7--x48--------|
--------------------------------|

2:40:
---------------------------------------------------|
---------------------------------------------------|
--7-x32---12-x32---7 x32---12-x32---7-x32---12-x32-|
---------------------------------------------------|


3:18:   i don't know if there is bass here but you can play this
-----------------------------------------------|
-----------------------------------------------|
-9----12----7---7----9----12---7----7-77777----|
-----------------------------------------------|


3:42:
------------|
------------|
------------|
--2-x16-----|


3:48: repeat till end
---------------------|
---------------------|
--7-x32---12-x32-----|
---------------------|


to mix it up play fills like this
-----------1413--1413--1413--1413-------|
---------------14----14----14----14-----|
--7-x32--99-----------------------------|
----------------------------------------|

there you go easy and nice

please leave comments and rate
Suggest correction new What's this?
You can suggest a correction to this tab. Community and Mods will review your correction and vote to approve or reject it.
comments
We did not receive enough feedback on this tab! Please rate:
print report bad tab
1 2 3 4 5
guest
You may want to rate the tab now too:
select rating
Please do not post tabs as comments. Select "correction" instead!