Oops, an error
Loading. Please wait.

Flight Tab

435 views 1 this week
no commentswrite comment
1 2 3 4 5
3 more votes to show rating
add to favorites
launch autoscroll
font size
0
reset
how to read this tab
guitar tuner
Autoscroll
slow
fast
+/-
esc
set tempo
stop
Help us to improve Ultimate-Guitar.com Take our survey!
×
Author
Flight:

This one is very straightforward but rather harder to tab properly.
It's just one guitar and bass for most of it. After the intro dies
down it starts with two notes for the first verse. It's tremolo
picking for the whole thing and the 12 is the main note for most
 of the verse. It fades in and out sometimes slipping down to 10

B|-10-12

Chorus:

e|-----------------------------------------------------------------|
B|-8-8-8-8-8-8-8-8-9-9-9-9-9-9-9-9-------------------------9-9-9-9-|
G|---------------------------------10-10-10-10-10-10-10-10---------|
D|-----------------------------------------------------------------|
A|-----------------------------------------------------------------|
E|-----------------------------------------------------------------|

e|-----------------------------------------------------------------|
B|-9-9-9-9-8-8-8-8-8-8-8-8-9-9-9-9-9-9-9-9-------------------------|
G|-----------------------------------------10-10-10-10-10-10-10-10-|
D|-----------------------------------------------------------------|
A|-----------------------------------------------------------------|
E|-----------------------------------------------------------------|

e|-----------------------------------------------------------------|
B|------------9-9-9-9-8-8-8-8-8-8-8-8-9-9-9-9-9-9-9-9--------------|
G|10-10-10-10-----------------------------------------10-10-10-10--|
D|-----------------------------------------------------------------|
A|-----------------------------------------------------------------|
E|-----------------------------------------------------------------|

e|------------------------------------------------------------------|
B|------------9-9-9-9-9-9-9-9-8-8-8-8-8-8-8-8-9-9-9-9-9-9-9-9-------|
G|10-10-10-10-------------------------------------------------10-10-|
D|------------------------------------------------------------------|
A|------------------------------------------------------------------|
E|------------------------------------------------------------------|

e|-----------------------------------------------------------------|
B|-----------------------------------------------------------------|
G|-10-10-10-10-10-10-10-10-10-10-10-10-10-10-----------------------|
D|-----------------------------------------------------------------|
A|-----------------------------------------------------------------|
E|-----------------------------------------------------------------|

This note carries through to the second verse which is similar to
 the first but with different notes. The 16 note take the place of
12 from the first verse but slides up to 17 more often


B|10--12--16-17----------------------------------------------------

Then a second chorus, again the 10 note leading into a part which
is probably a keyboard but anyway:


e|-----------------------------------------------------------------|
B|-----------------------------------------------------------------|
G|-----------------------------------------------------------------|
D|----------9-----------9-----------9-----------8------------------|
A|---------7-----------7-----------7-----------7-------------------|
E|7-7-7-7-5---7-7-7-7-5---7-7-7-7-5---7-7-7-7-5--------------------|

This plays about four times then:


e|-----------------------------------------------------------------|
B|-10-10-10-10-10-10-10-10-9-9-9-9-9-9-9-9-------------------------|
G|-----------------------------------------9-9-9-9-9-9-9-9---------|
D|-----------------------------------------------------------------|
A|-----------------------------------------------------------------|
E|-----------------------------------------------------------------|

This feeds into the last chorus followed by a final verse with just
bass to finish out
Suggest correction
Give kudos to tab author, rate the tab!
1 2 3 4 5
comments
print report bad tab
guest
You may want to rate the tab now too:
select rating
Wanna post a correction for this tab? Suggest correction