Oops, an error
Loading. Please wait.

Forces Bass Tab

400 views 1 this week
no commentswrite comment
1 2 3 4 5
please rate
add to favorites
launch autoscroll
font size
0
reset
guitar tuner
Autoscroll
slow
fast
+/-
esc
set tempo
stop
Help us to improve Ultimate-Guitar.com Take our survey!
×
Author
Forces by The Boxer Rebellion

tuning: standard

intro:
----------------------------------------------------------------------|
----------------------------------------------------------------------|
-----------------6-6-6-6-/10-10-10-10-----------------6-6-6-6-6-6-6-6-|
-8-8-8-8-8-8-8-8----------------------8-8-8-8-8-8-8-8-----------------|

----------------------------------------------------------------------------|
----------------------------------------------------------------------------|
-----------------66666666/1010101010101010-----------------6666666666666666-|
-8888888888888888-------------------------8888888888888888------------------|

verse 1:
----------------------------------------------------------|
----------------------------------------------------------|
----------------------------------------------------------|
-3-x16--6-x16--3-x16--1-x16--3-x16--6-x16--3-x16--1-x16---|


for the chorus you can slightly hear little bass fills but i tabbed it both without and 
the fills

chorus 1: x2  with fills
-----------------------------------------------------|
-----------------------------------------------------|
------65-----56-/101010101010101010101010101010865---|
--8888---8888----------------------------------------|

-----------------------------------|
-----------------------------------|
-----65-----56---------------------|
-8888---8888---3333333333336666----|


chorus 1: x2   without fills
--------------------------------|
--------------------------------|
---------10-x16-----------------|
--8-x16----------8-x16--3-x16---|


verse 2 is the same as verse 1
                                       you should be able to know when the chorus and verse comes
chorus 2 is the same as chorus 1

bridge: part 1
----------------------------|
----------------------------|
-------6--/10--------6------|
-8-------------8------------|

-----------------------------------------------------------------------|
-----------------------------------------------------------------------|
----------------6-6-6-6-/10-10-10-10-----------------6-6-6-6-6-6-6-6---|
8-8-8-8-8-8-8-8----------------------8-8-8-8-8-8-8-8-------------------|


bridge: part 2/solo x2
---------------------------------------------------------------------------|
---------------------------------------------------------------------------|
-----------------66666666/1010101010101010----------------6666666666666666-|
-8888888888888888-------------------------8888888888888888-----------------|

when vocals enter again just repeat that riff till the end

end on:
E---8----


there you have it
please leave any ratings or comments
Suggest correction
Give kudos to tab author, rate the tab!
1 2 3 4 5
comments
print report bad tab
guest
You may want to rate the tab now too:
select rating
Please do not post tabs as comments. Select "correction" instead!