Oops, an error
Loading. Please wait.

If You Run bass

396 views 3 this week
no commentswrite comment
1 2 3 4 5
3 more votes to show rating
add to favorites
×
Save as Personal and add changes to this tab that will be seen only by you. Learn more ›
×
You can save this tab as Personal to edit and correct it or add notes. All changes will be seen only by you. Learn more »
launch autoscroll
font size
0
reset
guitar tuner
edit
Autoscroll
slow
fast
+/-
esc
set tempo
stop
Author
Difficulty
If You Run by The Boxer Rebellion
Bass guitar played by Adam Harrison
Taken from the album Going The Distance
Tabbed by Laurent (laurent.morin@hotmail.com)

Adam Harrison always comes up with incredible bass lines. Having just seen him yesterday 
in Montréal, I can say he certainly knows when to take the spot and when to avoid 
overdoing things.
While this song is straightforward, I’m working on a bass tab (guitar pro format) for 
Step Out Of The Car, where his chords couldn’t be more powerful. The rhythm of that bass 
line is quite complicated for my level, but I hope to post it soon.

Standard tuning.

Chorus 1 - The bass comes in at in at 1 min. 11 sec.
G|----------------|----------------|----------------|----------------|
D|----------------|----------------|7-7-7-7-7-7-7-7-|5-5-5-5-5-5-5-5-|
A|8-8-8-8-8-8-8-8-|8-8-8-8-8-8-8-8-|----------------|----------------|
E|----------------|----------------|----------------|----------------|
- Play 3 times

G|----------------|----------------|
D|----------------|----------------|
A|8-8-8-8-8-8-8-8-|8-8-8-8-8-101010|
E|----------------|----------------| (* The last notes are 10, not 1-0)

Verse
G|----------------|----------------|----------------|----------------|
D|----------------|----------------|----------------|----------------|
A|----------------|----------------|----------------|----------------|
E|5-5-5-5-5-5-5-5-|5-5-5-5-5-5-5-5-|8-8-8-8-8-8-8-8-|8-8-8-8-8-8-8-8-|

G|----------------|----------------|----------------|----------------|
D|----------------|----------------|----------------|----------------|
A|8-8-8-8-8-8-8-8-|8-8-8-8-8-8-8-8-|----------------|----------------|
E|----------------|----------------|8-8-8-8-8-8-8-8-|8-8-8-8-8-8-8-8-|
- Play the whole verse 3 times

Chorus 2
G|----------------|----------------|----------------|----------------|
D|----------------|----------------|7-7-7-7-7-7-7-7-|5-5-5-5-5-5-5-5-|
A|8-8-8-8-8-8-8-8-|8-8-8-8-8-8-8-8-|----------------|----------------|
E|----------------|----------------|----------------|----------------|
- Play 3 times

G|----------------|----------------|----------------|----------------|
D|----------------|----------------|----------------|----------------|
A|8-8-8-8-8-8-8-8-|8-8-8-8-8-8-8-8-|8-8-8-8-8-8-8-8-|8-8-8-8-8-101010|
E|----------------|----------------|----------------|----------------|
(* The last notes are 10, not 1-0)

Breakdown
G|----------------|----------------|----------------|----------------|
D|----------------|----------------|----------------|----------------|
A|----------------|8---------------|----------------|----------------|
E|8---------------|----------------|8---------------|1---------------|

G|----------------|----------------|----------------|----------------|
D|----------------|----------------|----------------|----------------|
A|----------------|8---------------|----------------|----------------|
E|8---------------|----------------|8---------------|1-------------1/|

G|----------------|----------------|----------------|----------------|
D|----------------|----------------|----------------|----------------|
A|----------------|----------------|----------------|----------------|
E|5-5-5-5-5-5-5-5-|5-5-5-5-5-5-5-5-|1-1-1-1-1-1-1-1-|1-1-1-1-1-1-1-1-|

G|----------------|----------------|----------------|----------------|
D|----------------|----------------|----------------|----------------|
A|----------------|----------------|----------------|----------------|
E|8-8-8-8-8-8-8-8-|8-8-8-8-8-8-8-8-|1-1-1-1-1-1-1-1-|1-1-1-1-1-1-1-1-|

Finale
G|----------------|----------------|----------------|----------------|
D|----------------|----------------|----------------|----------------|
A|----------------|----------------|----------------|----------------|
E|5-5-5-5-5-5-5-5-|8-8-8-8-8-8-8-8-|1-1-1-1-1-1-1-1-|1-1-1-1-1-1-1-1-|
- Play 4 times

G|----------------|----------------|----------------|----------------|
D|----------------|----------------|----------------|----------------|
A|----------------|----------------|----------------|----------------|
E|0-0-0-0-0-0-0-0-|1-1-1-1-1-1-1-1-|8-8-8-8-8-8-8-8-|8-8-8-8-8-8-8-8-|
- Play 4 times

G|----------------|----------------|----------------|----------------|
D|----------------|----------------|----------------|----------------|
A|----------------|----------------|----------------|----------------|
E|3-3-3-3-3-3-3-3-|3-3-3-3-3-3-3-3-|1-1-1-1-1-1-1-1-|1-1-1-1-1-1-1-1-|
- Play 2 times

            
            
Suggest correction
Creating personal tab
Creating personal tab
You can edit any tab online and save it as your Personal.

You can edit, replace or remove any tab part or add personal notes – all changes will be seen only by you.

Personal tabs can be accessed anytime from any device, even offline.
Learn more »
Give kudos to tab author, rate the tab!
1 2 3 4 5
comments
print report bad tab
guest
You may want to rate the tab now too:
select rating
Wanna post a correction for this tab? Suggest correction