Oops, an error
Loading. Please wait.

If You Run Chords

version 2
version 2

Whole song

7,043 views 9 this week
2 commentsread comments
1 2 3 4 5
accurate
x 4
add to favorites
launch autoscroll
font size
0
reset
transpose
0
reset
display chords
guitar tuner
Tab Pro tools
  • play this tab
  • loop segment
  • change instrument
  • show fretboard
  • metronome
×
Best way to learn
"If You Run"
Autoscroll
slow
fast
+/-
esc
set tempo
stop
Contributor
Difficulty
intermediate
Hey Guys!, this is an amazing song, that I really like, and here I put my first Chords,
in ultimate-guitar, i'm from paraguay!, and for all the fans of this great band.
Here I leave the chords so they can do.
I found another chord, but to my ears is wrong.
I hope you like it. I'm trying to write as accurate as possible, because my English is 
not as fluid.
Well, Greetings From Paraguay!,

Enjoy it!

_ _ _ _ _ _ THE BOXER REBELLION _ _ _ _ _ _
- - - - - - - -IF YOU RUN - - - - - - - - -

Tuning: Stardard

Intro:
C Am G F


(after intro play this)(x2)

   Am               C               F                 C
e|--------5~------5~--------------------------------------------------------|
A|-----5-------5-------5--8~---5--8~----5--6~---5--6~---5-5~----5-5~--------|
D|--7-7-5---7-7-5---7-7-5---7-7-5----7-7-5---7-7-5---7-7-5---7-7-5----------|

Am         C
I'm always here
            F        C
Waiting for you all alone
Am          C
Eyes of the night
        F            C
Just to see, see you home

        F      C     G
There's two of us in here
    F  C   G
The only only
        F      C     G
There's two of us in here
         F
And it's only

(holding F, play this)

-----5--6~------5--6~-|
--7-7-5------7-7-5----|


   Am               C               F                 C
e|--------5~------5~--------------------------------------------------|
A|-----5-------5-------5--8~---5--8~----5--6~---5--6~---5-5~----5-5~--|
D|--7-7-5---7-7-5---7-7-5---7-7-5----7-7-5---7-7-5---7-7-5---7-7-5----|


Am         C
I'm always here
     F                C
All alone without you now
Am            C
Lights of the night
        F           C
Just to see you somehow

        F      C     G
There's two of us in here
    F  C  G
The only only
        F      C     G
There's two of us in here
         F
And it's only

(holding F, play this)(x2)

-----5--6~------5--6~-|
--7-7-5------7-7-5----|

         C         F               C
------------------------------------------|
--------5----------5-5~~--5s6-6s8--8------|
-----7-7-5~~---5s7------------------5~~---|
      F
-------------|
------5-5~~--|
--5s7--------|


(x3)
          C             F
Just you wait
-----------------------------|
------5-5~~--5s6-6s8--8------|
--5s7------------------5~~---|

         Am        F
Just you wait     oooohh, oooohhhh
--------------------------------------|
------5-5~~---5s6-5-------------------|
--5s7---------------7-99999~~---------|


(x4)

Am         C    F
    If you run


Am     C    F
I'll wait...
Am     C    F
I'll wait...
G     F   C
I'll wait...
G     F    C
I'll wait...
G     F   C
I'll wait...
G     F    C
I'll wait...

G      F        G        F
uuuhh, uuuuhhh, uhhhhhh, uhhhh

(Ends On F)


(also you can do the ''after intro'' in the whole song except the chorus and the final)

That's it, work all night for the settlement, I hope you enjoy

Good Luck!,

Gabriel S.
comments
print report bad tab
2 comments total.
0 reply
hansmetten wrote on September 8 2013, 10:14 am

Excellent!! Thanks for this one.

0 reply
faramir3151 wrote on April 10 2016, 11:21 am, edited at 11:21 am

instead of C chord in refren try to play it with Am it sounds so much better i thikn

I want to post or [tab]
guest
You may want to rate the tab now too:
select rating
Please do not post tabs as comments. Select "correction" instead!