Oops, an error
Loading. Please wait.

Never Knowing How Or Why Tab

version 2
version 2

Whole song

222 views 1 this week
3 commentsread comments
1 2 3 4 5
please rate
add to favorites
launch autoscroll
font size
0
reset
how to read this tab
guitar tuner
Autoscroll
slow
fast
+/-
esc
set tempo
stop
Help us to improve Ultimate-Guitar.com Take our survey!
×
Author
Never Knowing How or Why:

Did my best for the lead of this one, chords are buried somewhere but I couldn't
make head nor tail of them.

Verse 1

E|---------------------------------------------------------------------------|
A|---------------------------------------------------------------------------|
D|---------------------------------------------------------------------------|
G|-9-9-9-9-9-9-9-9-11-11-11-11-11-11-11-11-------------------------9-9-9-9-9-|
B|-----------------------------------------10-10-10-10-10-12-12-12-----------|
e|---------------------------------------------------------------------------|

E|---------------------------------------------------------------------------|
A|---------------------------------------------------------------------------|
D|---------------------------------------------------------------------------|
G|-9-9-9---------------------------------------------------------------------|
B|--------11-11-11-11-11-11-11-11-9-9-9-9-9-9-9-9-9-9-9-9-9-9-9-9------------|
e|---------------------------------------------------------------------------|

Chrous(Played Twice)

E|------------------------------------------------------12----12------------|
A|-------------------------------------10-12-10-9-12-12----10----9-10-10----|
D|-12----12----------12----12--------------------------------------------12-|
G|----12----12----------12--------------------------------------------------|
B|-------------10-10----------10-12-12--------------------------------------|
e|--------------------------------------------------------------------------|

E|---------------------------------------------------------------------------|
A|----------------------------------10-12-10-9-12-12-10-12-10-9-12-12--------|
D|----12-----------12---12---------------------------------------------------|
G|12-----12----------12------------------------------------------------------|
B|---------10-10-----------10-12-12------------------------------------------|
e|---------------------------------------------------------------------------|

The second verse is the same notes as the first but the picking rhythm is different

After the second chorus:

These notes are definitely played but I'm not sure whether its the lead or whether
they're as part of a chord as they feed out of whatever is playing on the second
guitar under the chorus. You'll have to listen for the rhythm because I'm not sure
how to tab it,

E|---------------------------------------------------------------------------|
A|---------------------------------------------------------------------------|
D|---------------------------------------------------------------------------|
G|---------------------------------------------------------------------------|
B|-17----------17--18--------------------------------------------------------|
e|-----17-(19)---------------------------------------------------------------|

It finishes on 18 of ths bit after the last chorus

Any corrections welcome
Suggest correction
Give kudos to tab author, rate the tab!
1 2 3 4 5
comments
print report bad tab
3 comments total.
+1 reply
Straten 10 wrote on January 19 2009, 07:25 pm

Well, the entire thing is upside down, and im prety sure its all one fret higher then what you have here, and the second part of the verse dousnt seem right, im pretty sure it's 10-12 on the B string, not trying to be a faggot, just trying to make it better XP

0 reply
Straten 10 wrote on January 19 2009, 07:27 pm

sry, G-string, not B, cant type today

0 reply
Straten 10 wrote on January 20 2009, 04:08 pm

lmao, sry had different tuning in, that's why it sounded like it should've been one fret higher XD

guest
You may want to rate the tab now too:
select rating
Wanna post a correction for this tab? Suggest correction