Oops, an error
Loading. Please wait.

Semi Automatic tab

version 3
version 3

Whole song

Interactive

262 views 1 this week
no commentswrite comment
1 2 3 4 5
3 more votes to show rating
add to favorites
×
Save as Personal and add changes to this tab that will be seen only by you. Learn more ›
×
You can save this tab as Personal to edit and correct it or add notes. All changes will be seen only by you. Learn more »
launch autoscroll
font size
0
reset
how to read this tab
guitar tuner
edit
Autoscroll
slow
fast
+/-
esc
set tempo
stop
I wasn't too happy with the previous tab so I went ahead and tried to do a little better. Tab for main riff
and chords.

Standard tuning.

Main riff:

e|---------------------------------------------------------------------------|
B|--------2-----1-h2---------------1-----------------------------------------|
G|-----------3-----------0---0--------1----0----------0-----1-----0-h1-------|
D|-----3--------------3---------3--------3---------1-------------------------|
A|--1-------------------------------------------1--------1-----1-------------|
E|---------------------------------------------------------------------------|

And again from the start :)

The chords are A#m, Fm and Eb. If you just wanna play chords, then place a capo on the first fret.


       A#m     Fm     Eb OR (my preference): Eb
e|------1-------1------3----------------------6------------------------------|
B|------2-------1------4----------------------8------------------------------|
G|------3-------1------3----------------------8------------------------------|
D|------3-------3------5----------------------8------------------------------|
A|------1-------3------x----------------------6------------------------------|
E|------1-------1------x----------------------6------------------------------|

*** h  - hammer-on


Also, the song with the chords:

A#m  Fm      Eb   A#m                   Fm
i am waiting in a world you don't want
      Eb     A#m   Fm
suffo-cating by an endless weak spot
Eb           A#m
please know, up here,
Fm           Eb
my hands are tied up too from


A#m Fm Eb
all i can see
A#m      Fm     Eb
makes it hard for me
A#m      Fm   Eb
the last one to say
A#m
good son
Fm     Eb
one more day


A#m      Fm   Eb        A#m          Fm
you know i am here, but i am losing
         Eb     A#m     Fm
faith in what i see you celebrating
Eb      A#m
i know, up here,
Fm      Eb
i'll be proven guilty

--- and chorus again x2 ---


by /me
Suggest correction
Creating personal tab
Creating personal tab
You can edit any tab online and save it as your Personal.

You can edit, replace or remove any tab part or add personal notes – all changes will be seen only by you.

Personal tabs can be accessed anytime from any device, even offline.
Learn more »
Give kudos to tab author, rate the tab!
1 2 3 4 5
comments
print report bad tab
guest
You may want to rate the tab now too:
select rating
Wanna post a correction for this tab? Suggest correction