Oops, an error
Loading. Please wait.

Spitting Fire Tab

7,478 views 18 this week
no commentswrite comment
1 2 3 4 5
worth learning
x 3
add to favorites
launch autoscroll
font size
0
reset
how to read this tab
guitar tuner
Tab Pro tools
  • play this tab
  • loop segment
  • change instrument
  • show fretboard
  • metronome
Autoscroll
slow
fast
+/-
esc
set tempo
stop
Contributor
Tuning: standard

Easy to play sounds good.

intro/verse: both guitar 1 and two
---------------------|
---------------------|
---------------------|
-8--------10---------|       play till chorus at 0:29
-8--x12---10--x4-----|
-6--------8----------|

Chorus:   guitar 1
[-------------------------------------------|
[----13-11-----13-11-----13-11-----15-13----|
[-------------------------------------------|
[-12--------12--------15--------15----------|
[-------------------------------------------|
[------------------------------ ------------|
[
[chorus:  guitar 2
[-------------------------|
[-------------------------|
[-------------------------|
[--5----------8-----------|
[--5---x16----8----x16----|
[--3----------6-----------|


verse till next chorus at 1:05

repeat chorus with same parts


bridge at 1:20

guitar 1:
[-------------------|
[-------------------|
[-------------------|
[-8---------10------| these notes are held out
[-8---------10------|
[-6---------8-------|
[
[guitar 2:  this is in the very backround
[-------------------------------|
[-------------------------------|
[-------------------------------|
[-------------------------------|
[-----8-6-5----3---8-6-5--------|
[--6----------------------------|


guitar 1:
[---------------------------------------|
[---------------------------------------|
[-10--10-8-7--3-5--12--12-10-8--3-5-----|
[---------------------------------------|
[---------------------------------------|
[---------------------------------------|
[
[guitar 2:
[------------------------------|
[------------------------------|
[------------------------------|
[----8---------10--------------|  hold these out
[----8---------10--------------|
[----6---------8---------------|


verse 3:  x2

[guitar 1:  11=eleven   not one, one
[----------------------------------------|
[-11--x12-16161515--11--x12--16161818----|
[----------------------------------------|
[----------------------------------------|
[----------------------------------------|
[----------------------------------------|
[
[guitar 2:
[------------------------------|
[------------------------------|
[------------------------------|
[--8----------10---------------|
[--8----------10---------------|
[--6---x12----8----x4----------|


chorus 3:

[guitar 1:  treble picking
[-1o---------13----------|
[-8---x16----11---x16----|
[------------------------|
[------------------------|
[------------------------|
[------------------------|
[
[
[guitar 2:
[------------------------------|
[------------------------------|
[------------------------------|
[---5---------8----------------|
[---5---x16---8----x16---------|
[---3---------6----------------|


outro:
guitar 1 = same as verse 3
guitar 2 = same as verse 3


at 2:32 guitar stops  and guitar 1 goes on

guitar 1: hold out every note  (it sounds like it's in 8th notes but i think he's using an effect)
----------------------------------|
--15---16--15---16--15---16--15---|
----------------------------------|
----------------------------------|
----------------------------------|
----------------------------------|


enjoy!!!!
comments
We did not receive enough feedback on this tab! Please rate:
print report bad tab
1 2 3 4 5
I want to post or [tab]
guest
You may want to rate the tab now too:
select rating
Please do not post tabs as comments. Select "correction" instead!