Oops, an error
Loading. Please wait.

Watermelon Bass Tab

431 views 1 this week
no commentswrite comment
1 2 3 4 5
3 more votes to show rating
add to favorites
launch autoscroll
font size
0
reset
guitar tuner
Autoscroll
slow
fast
+/-
esc
set tempo
stop
Help us to improve Ultimate-Guitar.com Take our survey!
×
Author
bass tab for Watermelon by The Boxer Rebellion

tuning: standard

he uses a fuzz a effect

bass comes in at 0:20
for the bass riff you can play it either two ways

part 1:
---------------------|
---8877-8-8--887-----|
-------8----8--------|
-88------------------|

                                which ever part you pick you repeat until 2:14
part 2:
---------------------|
---887777--8877------|
---------88----8-----|
-88------------------|


bridge: at 2:14     x2
---------------------|
---------------------|
---------------------|
-8---8---8---8-------|

at 2:28   you go back to the main riff and play till end

please rate and leave comments
Suggest correction
Give kudos to tab author, rate the tab!
1 2 3 4 5
comments
print report bad tab
guest
You may want to rate the tab now too:
select rating
Wanna post a correction for this tab? Suggest correction