Oops, an error
Loading. Please wait.

Watermelon Tab

version 1
version 1

Whole song

1,164 views 9 this week
no commentswrite comment
1 2 3 4 5
please rate
add to favorites
launch autoscroll
font size
0
reset
how to read this tab
guitar tuner
Tab Pro tools
  • play this tab
  • loop segment
  • change instrument
  • show fretboard
  • metronome
×
Best way to learn
"Watermelon"
Autoscroll
slow
fast
+/-
esc
set tempo
stop
Contributor
Watermelon

Most of TBR songs are played on guitar tuned to C but it doesn't seem to make much of a 
except to the sound through the amp. I've just tabbed these in standard cause my guitar 
stay in tune for more than one strum in C

Verse 1:

Guitar 1. If you've got Todd's guitar tuned to C and a load of
delay then go ahead and play it behind the bridge but eh, I don't
:-)

E|-----------------------------------|
A|-----------------------------------|
D|-----------------------------------|
G|-----------------------------------|
B|-10--10--10-10-10--10--10--9-9-9-9-|
e|-----------------9-------9---------|


Guitar 2

E|-7--------------------------------|
A|-----------7-----------7----------|
D|---7-7-6-7------7--6-7------------|
G|----------------------------------|
B|----------------------------------|
e|----------------------------------|

Chorus:

E|-7-7-7-7-0--0--0------7-7-7-7-0--0--|
A|-9-9-9-9-0--0--0------9-9-9-9-0--0--|
D|-9-9-9-9-0--0--0-(x3)-9-9-9-9-0--0--|
G|---------11-11-10-------------14-16-|
B|------------------------------------|
e|------------------------------------|

No idea what the other guitar is doing, best just to imagine a wall
of fuzz

Verse 2 is the same as the first, as is the second chorus

Next bit after the second chorus:

Guitar 1

E|-----------------------------------------------------------------|
A|-----------------------------------------------------------------|
D|-9----9-------9-----9------9----9-------9-----9-------(x4)-------|
G|---11---10-10---9-9---7-7b---11---10-10---9-9--------------------|
B|------------------------------------------------10-12------------|
e|-----------------------------------------------------------------|

Guitar 2

E|-7-7--7-7--7-7--7-7----------------------7-7--7-7--7-7--7-7--5-5-|
A|-9-9--9-9--9-9--9-9--7-7--7-7--7-7--7-7--9-9--9-9--9-9--9-9--7-7-|
D|-9-9--9-9--9-9--9-9--9-9--9-9--9-9--9-9--9-9--9-9--9-9--9-9--7-7-|
G|---------------------9-9--9-9--9-9--9-9--------------------------|
B|-----------------------------------------------------------------|
e|-----------------------------------------------------------------|

E|-5-5--5-5--5-5---------------------------------------------------|
A|-7-7--7-7--7-7---------------------------------------------------|
D|-7-7--7-7--7-7---------------------------------------------------|
G|-----------------------------------------------------------------|
B|-----------------------------------------------------------------|
e|-----------------------------------------------------------------|

Then there's one more verse and chorus and finish on

E|-7-
A|-9-
D|-9-

Again, my best attempts may be wrong, corrections welcome
comments
We did not receive enough feedback on this tab! Please rate:
print report bad tab
1 2 3 4 5
I want to post or [tab]
guest
You may want to rate the tab now too:
select rating
Please do not post tabs as comments. Select "correction" instead!