Oops, an error
Loading. Please wait.

Above And Below Bass Tab

version 3
version 3

Whole song

Interactive

10 views 1 this week
no commentswrite comment
1 2 3 4 5
3 more votes to show rating
add to favorites
launch autoscroll
font size
0
reset
guitar tuner
Autoscroll
slow
fast
+/-
esc
set tempo
stop
Help us to improve Ultimate-Guitar.com Take our survey!
×
Author
Difficulty
intermediate
: = staccato/play short
~ = legato/hold out
/ = slide up
\ = slide down
h = hammer on
p = pull off

Intro/Verses (0:21) Feel free to use the G string for all of this part if it's easier for you

G|----------5--5--4--4--5-7--7---|
D|-7-5-7-----5-----5-------5---5-|
A|-------------------------------| x7
E|-------------------------------|

Last part of the verse/pre-chorus(0:53)

G|----------5---5--4---4----4----4---------------------|
D|-7-5-7-----5-------5---5-----5---5--2-2-2-2-2-2-2-2/-|
A|-----------------------------------------------------| Slide into next note in Chorus
E|-----------------------------------------------------|

Chorus (1:01)

G|-----------------5--5-7-4--4---|
D|-7--5-7--3--3-----5------5---5-|
A|----------3--------------------| x4 (again, feel free to change to the G string for most of this)
E|-------------------------------|

Fill (1:21)

G|------------|
D|-7-7-7-7----|
A|---------0~-|
E|------------|

Verse x3 (1:24)

G|----------5--5--4--4--5-7--7---|
D|-7-5-7-----5-----5-------5---5-|
A|-------------------------------|
E|-------------------------------|

Pre-chorus (1:40)

G|----------5---5--4---4----4----4---------------------|
D|-7-5-7-----5-------5---5-----5---5--2-2-2-2-2-2-2-2/-|
A|-----------------------------------------------------|
E|-----------------------------------------------------|

Chorus x6 (1:48)

G|-----------------5--5-7-4--4---|
D|-7--5-7--3--3-----5------5---5-|
A|----------3--------------------|
E|-------------------------------|

Rest for the breakdown (2:19)

Chorus x8 (2:40)

G|-----------------5--5-7-4--4---|
D|-7--5-7--3--3-----5------5---5-|
A|----------3--------------------|
E|-------------------------------|


End (3:21)

G|------------|
D|-7-7-7-7-7~-|
A|------------|
E|------------|



Enjoy! Let me know if you have any critiques/questions
Suggest correction
Give kudos to tab author, rate the tab!
1 2 3 4 5
comments
print report bad tab
guest
You may want to rate the tab now too:
select rating
Wanna post a correction for this tab? Suggest correction