Oops, an error
Loading. Please wait.

Dandy Rock bass

177 views 1 this week
1 commentread comment
1 2 3 4 5
3 more votes to show rating
add to favorites
×
Save as Personal and add changes to this tab that will be seen only by you. Learn more ›
×
You can save this tab as Personal to edit and correct it or add notes. All changes will be seen only by you. Learn more »
launch autoscroll
font size
0
reset
guitar tuner
edit
Autoscroll
slow
fast
+/-
esc
set tempo
stop
Great unreleased song by a great band

Intro (About 0:05)

G|---------|
D|---------|
A|\99997777|
E|---------|

Chorus

G|--------------------------------|
D|--------------------------------|
A|55555555000000004444444499997777|
E|--------------------------------|

Post Chorus

G|------------------------------------------------|
D|------------------------------------------------|
A|555555550000000044444444888888889999999999999999|
E|------------------------------------------------|

Verse

G|--------------------------------|
D|--------------------------------|
A|--------222222220000000044444444| x3
E|22222222------------------------|

Pre Chorus

G|-------------------------------------------------|
D|----------------------------------------/99999999|
A|--------22222222000000004444444444444444/--------|
E|22222222-----------------------------------------|

Chorus x3

Post Chorus

Verse x3

Pre Chorus

Chorus x2

Chorus Variation

G|----------------------------------|
D|-------------------------11-11-9-9|
A|5555555500000000444444449--9--7-7-|
E|----------------------------------|

Post Chorus

Chorus Variation

Chorus x2

Post Chorus Variation

G|--------------------------------|
D|--------------------------------|
A|55555555000000004444444444444444|
E|--------------------------------|

Rest

Intro (About 3:10)

Chorus

Post Chorus Variation

Outro

G|--------------11-------9--|
D|----------9h11--11/14\9---|
A|9999999999--------------9\|
E|--------------------------|

Heres the order if you need it:

Intro (About 0:05)
Chorus
Post Chorus
Verse x3
Pre Chorus
Chorus x3
Post Chorus
Verse x3
Pre Chorus
Chorus x2
Chorus Variation
Post Chorus
Chorus Variation
Chorus x2
Post Chorus Variation
Rest
Intro (About 3:10)
Chorus
Post Chorus Variation
Outro

Have Fun!!
Suggest correction
Creating personal tab
Creating personal tab
You can edit any tab online and save it as your Personal.

You can edit, replace or remove any tab part or add personal notes – all changes will be seen only by you.

Personal tabs can be accessed anytime from any device, even offline.
Learn more »
Give kudos to tab author, rate the tab!
1 2 3 4 5
comments
print report bad tab
1 comment total.
0 reply
ultimatahmet 10 Apr 09, 2012 01:09 PM

please upload the solo tab of this song I beg, please.

guest
Wanna post a correction for this tab? Suggest correction