Oops, an error
Loading. Please wait.

Time Wont Let Me Go bass

version 1
version 1

Whole song

4,013 views 6 this week
4 commentsread comments
1 2 3 4 5
1 last vote to show rating
add to favorites
×
Save as Personal and add changes to this tab that will be seen only by you. Learn more ›
×
You can save this tab as Personal to edit and correct it or add notes. All changes will be seen only by you. Learn more »
launch autoscroll
font size
0
reset
guitar tuner
edit
Autoscroll
slow
fast
+/-
esc
set tempo
stop
Author
-------------------------------------------------------------------------------
		     Time Wont Let Me Go - The Bravery
-------------------------------------------------------------------------------

Tabbed By : guitarkenny
e-mail: kenjy92@yahoo.com

Tuning: Standard E

 Intro  0:00 - 0:31
G|---------------------------------------------------------------------------|
D|--3---3---3---3---------------------------------5h7-7------------------x3--|
A|-----------------3---3---3---3---------------------------------------------|
E|--------------------------------3---3---3---3------------------------------|

 Verse 1  0:32 - 0:55
G|---------------------------------------------|--------End verse on:--------|
D|------3--------------------------5h7-7-----x3|---3---------5-----5h7-7-----|
A|----------------3----------------------------|--------3--------------------|
E|--------------------------3------------------|-----------------------------|

 Chorus 1  0:56 - 1:21
G|---------------------------------------|-----------End chorus on:----------|
D|--3-3-3-3---------------5-7-5-3------x3|-3-3-3-3---------5-5-5-5-5-5-5-5---|
A|---------3-3-3-3----------------5------|---------3-3-3-3-------------------|
E|----------------3-3-3-3----------------|-----------------------------------|

 Post Chorus  1:22 - 1:33
G|---------------------------------------------------------------------------|
D|--3---3---3---3---------------------------------5h7-7----------x2----------|
A|-----------------3---3---3---3---------------------------------------------|
E|--------------------------------3---3---3---3------------------------------|

 Verse 2  1:34 - 1:58
G|---------------------------------------------|--------End verse on:--------|
D|------3--------------------------5h7-7-----x3|---3---------5-----5h7-7-----|
A|----------------3----------------------------|--------3--------------------|
E|--------------------------3------------------|-----------------------------|

 Chorus 2  1:59 - 2:23
G|---------------------------------------|-----------End chorus on:----------|
D|--3-3-3-3---------------5-7-5-3------x3|-3-3-3-3---------5-5-5-5-5-5-5-5---|
A|---------3-3-3-3----------------5------|---------3-3-3-3-------------------|
E|----------------3-3-3-3----------------|-----------------------------------|

 Bridge  2:24 - 3:09
G|---------------------------------------------------------------------------|
D|--3---3---3---3---------------------------------5-5h7-7----------------x4--|
A|-----------------3---3---3---3---------------------------------------------|
E|--------------------------------3---3---3---3------------------------------|

G|--------------------------------------------|--End bridge on:--|-----------|
D|------------------------------------------x2|------------------|-----------|
A|---5------5------3------3-------------------|--------5---------|-----------|
E|-------------------------------3------3-----|------------------|-----------|

 Chorus 3  3:10 - 3:34
G|---------------------------------------------------------------------------|
D|--3---3---3---3-------------------------------5---7---5---3------------x3--|
A|-----------------3---3---3--3--------------------------------5-------------|
E|-------------------------------3---3---3---3-------------------------------|

G|----------------------------End Chorus with:-------------------------------|
D|--3--3--3--3--------------3--5--5--5--3--5--5--5--3--5--5--5--3--5--5------|
A|--------------3--3--3--3---------------------------------------------------|
E|---------------------------------------------------------------------------|

 Outro  3:35 - 4:18
G|---------------------------------------------------------------------------|
D|--3---3---3---3---------------------------------5-5h7-7-------------Fade---|
A|-----------------3---3---3---3--------------------------------------Out----|
E|--------------------------------3---3---3---3------------------------------|


| /  slide up
| \  slide down
| h  hammer-on
| p  pull-off
| ~  vibrato
| +  harmonic
| x  Mute note
===============================================================================

            
            
Suggest correction
Creating personal tab
Creating personal tab
You can edit any tab online and save it as your Personal.

You can edit, replace or remove any tab part or add personal notes – all changes will be seen only by you.

Personal tabs can be accessed anytime from any device, even offline.
Learn more »
Give kudos to tab author, rate the tab!
1 2 3 4 5
comments
print report bad tab
4 comments total. Showing first comments.
0 reply
keneticshark24 135 Jul 10, 2007 04:11 AM

Finally, some bass tabs of the new album.

This is awesome, great job. Keep going! :P

0 reply
guitarkenny 72 Jul 10, 2007 12:29 PM

Thanks! this is actually my first tab that was excepted!

0 reply
zacky gates 60 Jul 13, 2007 12:35 PM

PLEASE do more bass tabs off this album!

guest
You may want to rate the tab now too:
select rating
Wanna post a correction for this tab? Suggest correction