Oops, an error
Loading. Please wait.

Tyrant bass

version 2
version 2

Whole song

1,401 views 1 this week
3 commentsread comments
1 2 3 4 5
x 5
add to favorites
×
Save as Personal and add changes to this tab that will be seen only by you. Learn more ›
×
You can save this tab as Personal to edit and correct it or add notes. All changes will be seen only by you. Learn more »
launch autoscroll
font size
0
reset
guitar tuner
edit
Autoscroll
slow
fast
+/-
esc
set tempo
stop
Author
-------------------------------------------------------------------------------
			     TYRANT - The Bravery
-------------------------------------------------------------------------------

Tabbed By : zacky gates
e-mail: themetroid1@gmail.com

Tuning: Standard

This is the actual way it is played...it's also a lot easier than the other tab

Verse

G|---7-7---------7-------7-7---------7------6-6------------------------------|
D|-------9-9-------9---0-----9-9---0---9--------7-7----10-7------------------|
A|----------------------------------------0----------8-----------------------|
E|-7----------7--------------------------------------------------------------|

G|---------------------------------------------------------------------------|
D|---9-9-6-6---6-6-9-6-------------------------------------------------------|
A|-7---------7---------------------------------------------------------------|
E|---------------------------------------------------------------------------|


Chorus (not sure if this is right, email me or PM me or whatever if you really know how it goes)

G|---------------------------------------------------------------------------|
D|---------------------------------0-0-0-0-0-0-0-0---------------------------|
A|-2-2-2-2-2-2-2-2---------------------------------4-4-4-4-4-4-4-4-----------|
E|-----------------3-3-3-3-3-3-3-3-------------------------------------------|

| /  slide up
| \  slide down
| h  hammer-on
| p  pull-off
| ~  vibrato
| +  harmonic
| x  Mute note
===============================================================================

            
            
Suggest correction
Creating personal tab
Creating personal tab
You can edit any tab online and save it as your Personal.

You can edit, replace or remove any tab part or add personal notes – all changes will be seen only by you.

Personal tabs can be accessed anytime from any device, even offline.
Learn more »
comments
print report bad tab
3 comments total.
0 reply
keneticshark24 135 Aug 22, 2007 09:54 AM

This is awesome. Keep producing more bass tabs.

Rock on.

0 reply
stumaster18 514 Oct 20, 2007 06:08 AM

sounds great, man. your chorus sounds bang on. Love this song.

0 reply
Megalomaniac16 100 Oct 26, 2007 11:57 AM

that second riff is off, and that last part isnt right either

guest
You may want to rate the tab now too:
select rating
Wanna post a correction for this tab? Suggest correction