Oops, an error
Loading. Please wait.

Cannonball Tab

version 3
version 3

Whole song

Interactive

5,671 views 48 this week
no commentswrite comment
1 2 3 4 5
excellent!
x 5
add to favorites
launch autoscroll
font size
0
reset
how to read this tab
guitar tuner
Tab Pro tools
  • play this tab
  • loop segment
  • change instrument
  • show fretboard
  • metronome
Autoscroll
slow
fast
+/-
esc
set tempo
stop
Contributor
Difficulty
novice
The breeders   Canonball   time: 4|4  tuning: standard. (they play standard in the video)

By: Milky14, ultimate-guitar.com

Intro:

Bass and drum ( some guitar feedback too )

Verse

cool riff:

e|--------------------|---------------|-----------------|
B|--------------------|---------------|-----------------|
G|-----8/6-8/6--------|-8/6-8/6-------|-8/6-8/6---------|
D|-------------8/6-8/6|--------8/6-8/6|---------8/6-8/6-|
A|--------------------|---------------|-----------------|
E|--------------------|---------------|-----------------|

        Bb Eb               (on I'm the last splash)
e|------6--6-----|             |---6-------|
B|------6--8-----|             |---6-------|
G|------7--8-----|x6 and then: |---7-------|
D|------8--8-----|             |---8-------|
A|------8--6-----|             |---8-------|
E|------6--------|             |---6-------|



Bb Eb x13


Chorus



e|---x-x-x-x-x---666--666--11111111xxxx-------|
B|---x-x-x-x-x---666--888--13131313xxxx-------|
G|---x-x-x-x-x---777--888--13131313xxxx-------|  x5
D|---x-x-x-x-x---888--888--13131313xxxx-------|
A|---x-x-x-x-x---888--666--11111111xxxx-------|
E|---x-x-x-x-x---666--xxx---------------------|

Verse

Bb Eb x3

e|--6~--4--6----|
B|--6~--4--8----|
G|--7~--5--8----|
D|--8~--6--8----|
A|--8~--6--6----|
E|--6~--4--x----|

after that


Bb Eb x9


Rest for one bar


Back to chorus


Verse


Chorus


Verse


Repeat the chords 8 times and end abrubtly. ( Listen to song to see what I mean )


***hint:

Play the cool riff over the chords in the verse after the other guitarist repeated the 2 
chords ( Eb and Bb ) 3 times.
comments
print report bad tab
I want to post or [tab]
guest
You may want to rate the tab now too:
select rating
Please do not post tabs as comments. Select "correction" instead!