Oops, an error
Loading. Please wait.

Flipside bass

449 views 1 this week
no commentswrite comment
1 2 3 4 5
3 more votes to show rating
add to favorites
×
Save as Personal and add changes to this tab that will be seen only by you. Learn more ›
×
You can save this tab as Personal to edit and correct it or add notes. All changes will be seen only by you. Learn more »
launch autoscroll
font size
0
reset
guitar tuner
edit
Autoscroll
slow
fast
+/-
esc
set tempo
stop
Author
Unregistered
Song: Flipside
Artist: The Breeders
Tuning: E A D G
Transcribed by: N/A


This song is composed of mainly 4 parts, with a few variations that are really easy to 
figure out

Verse:

G----------------------------------------------|
D----------------------------------------------|
A-2-2-2-2-2-2-2-2-2-2-2-2-2-2-2-2-2-2-2-2-2-2-2|
E----------------------------------------------|

That's not an accurate number of notes, but you get the idea

Fill 1:

G-----------------|
D-----------------|
A-9-9-7-7-5-5-4-4-|
E-----------------|

Play this at the end of most of the verses

Chorus: (I'm just calling it that even though this is an instrumental)

G-------------------------------------------------------------------|
D-------------------------------------------------------------------|
A-4-4-4-4-4-4-4-4------------------4-4-4-4-4-4-4-4--7-7-7-7-7-7-7-7-|
E-----------------2-2-2-2-2-2-2-2-----------------------------------|

The first time after the chorus, just hit a bunch of 9's on the A string, but the rest 
of the time play this:

G-----------------|
D-----------------|
A-1-1-2-2-3-3-4-4-|
E-----------------|

That's most of the song.

Any Corrections or anything just use the comments
Suggest correction
Creating personal tab
Creating personal tab
You can edit any tab online and save it as your Personal.

You can edit, replace or remove any tab part or add personal notes – all changes will be seen only by you.

Personal tabs can be accessed anytime from any device, even offline.
Learn more »
Give kudos to tab author, rate the tab!
1 2 3 4 5
comments
print report bad tab
guest
Wanna post a correction for this tab? Suggest correction