Oops, an error
Loading. Please wait.

Metalman tab

version 1
version 1

Whole song

Interactive

2,373 views 12 this week
1 commentread comment
1 2 3 4 5
x 7
add to favorites
×
Save as Personal and add changes to this tab that will be seen only by you. Learn more ›
×
You can save this tab as Personal to edit and correct it or add notes. All changes will be seen only by you. Learn more »
launch autoscroll
font size
0
reset
how to read this tab
guitar tuner
edit
Autoscroll
slow
fast
+/-
esc
set tempo
stop
#----------------------------------PLEASE NOTE---------------------------------#
#This file is the author's own work and represents their interpretation of the #
#song. You may only use this file for private study, scholarship, or research. #
#------------------------------------------------------------------------------##
}`KX-P1081?

man by kim deal(The Breeders)
transcribed by Edmond Hum 

 e---------------------|
 b---------------------|
 g---------------------|
 d------5-5-----7-5----|
 a----5-------5--------|
 e---------------------|

A7 D7 [10x]

i don't know how old i was
but it was a '65 pickup
i was lying on the ground
with flat iron bars over my head


C
one silver drop is all you need
to put a hole in your head at two thousand degrees
       G                     E         G
that's right man, you be the metal man
                    E
at two thousand degrees

 e-------------------------------------------------------|
 b-------------------------------------------------------|
 g-------------------------------------------------------|
 d-------------------------------------------------------|
 a----0-0-0-0--0-0-0-0--3-3-3s5--5-5-5-5------[3x]-------|
 e-------------------------------------------------------|

and that's hot
that's hot

 e-------------------------------------------------------|
 b-------------------------------------------------------|
 g-------------------------------------------------------|
 d-------------------------------------------------------|
 a----0-0-0-0--0-0-0-0--0-0-0-5--5-5-5-5-----------------|
 e-------------------------------------------------------|

A7 D7 [3x]
A C D [3x] - A
A7 D7 [4x]

and over my head the hot wire was sparking
i got something down on my chest
and it began to bubble

C
i was her parent, my three in a tree
when a drip dropped down on me
       G                  E         G
that's right man, i'm the metal man
                    E
at two thousand degrees ?:F7 
?
 e-------------------------------------------------------|
 b-------------------------------------------------------|
 g-------------------------------------------------------|
 d-------------------------------------------------------|
 a----0-0-0-0--0-0-0-0--3-3-3s5--5-5-5-5------[3x]-------|
 e-------------------------------------------------------|

and that's hot
that's hot

 e-------------------------------------------------------|
 b-------------------------------------------------------|
 g-------------------------------------------------------|
 d-------------------------------------------------------|
 a----0-0-0-0--0-0-0-0--0-0-0-5--5-5-5-5-----------------|
 e-------------------------------------------------------|

A7 D7 [4x]



            
            
Suggest correction
Creating personal tab
Creating personal tab
You can edit any tab online and save it as your Personal.

You can edit, replace or remove any tab part or add personal notes – all changes will be seen only by you.

Personal tabs can be accessed anytime from any device, even offline.
Learn more »
comments
print report bad tab
1 comment total.
0 reply
hectorslemons 10 Jul 27, 2015 12:12 PM

e-------------------------------------------------------|
b-------------------------------------------------------|
g-------------------------------------------------------| x2
d-----0--0--0-0-0---0--0--0-----------------------------|
a----5--4---2-0-0---5--4--3-----------------------------|
e-------------------------------------------------------|
This is how kim plays the part in the mini solo. after josephine says "that's hot" part.

guest
Wanna post a correction for this tab? Suggest correction