Oops, an error
Loading. Please wait.

David Bowie I Love You Since I Was Six chords

version 2
version 2

Whole song

  • Originally the song has Bb key, this tab has C key.
409 views 27 this week
1 commentread comment
1 2 3 4 5
x 3
add to favorites
×
Save as Personal and add changes to this tab that will be seen only by you. Learn more ›
×
You can save this tab as Personal to edit and correct it or add notes. All changes will be seen only by you. Learn more »
launch autoscroll
font size
0
reset
transpose
0
reset
display chords
guitar tuner
edit
Autoscroll
slow
fast
+/-
esc
set tempo
stop
Author
Difficulty
About this tab version
Originally the song has Bb key, this tab has C key. Was this info helpful? Yes No
Strumming Is this strumming pattern correct? Yes No
120 bpm
1
&
2
&
3
&
4
&
5
&
6
&
Listen
Tabs
————
{Riff: example 1}
     C                            Em
E||--0------0--1--0------0--1--|--0----------------------|
B||-(1)--3-------(1)--3--------|-(0)---0-----------0--3--|
G||-(0)----------(0)-----------|-(0)------------0--------|
D||-(2)----------(2)-----------|-(2)---------------------|
A||-(3)----------(3)-----------|-(2)---------------------|
E||----------------------------|-(0)---------------------|

OR

{Riff: example 2}
     C                           Em
E||-(0)-----------0-----------|--0------------------------|
B||-(1)----------(1)----------|-(0)-----------------------|
G||-(0)----------(0)----------|-(0)-----------------------|
D||--2---0h2--3---2---0h2--3--|--2---------------------0--|
A||-(3)----------(3)----------|-(2)-----2-----------2-----|
E||---------------------------|-(0)--------------3--------|


SONG
————
[Intro]
C Em (x2)
C Em {or Riff} (x2)
F G
G G

[Verse]
C                                Em
  Does she love you, you suppose
C                              Em
  With somebody who would know
C                              Em
  Who believes in what you are
C                                Em
  You're my favorite thing by far


[Chorus]
F                          G
  There's a fire in your eyes
                  F
I see it all sometimes
                       G
In the darkness of the night
                    G
I see it many times
                           C
Yes I'm sure it shines in you

C Em {or Riff} (x2)

[Verse]
C                                  Em
  There's no warm place left to go
C                              Em
  When I'm feeling kind of slow (slow down sir)
C                           Em
  Do you like the way you are
C                                  Em
  Yes it is, 'cause you're the star


[Chorus]
F                              G
  It's the brightness in your eyes
                 F
I see it all tonight
                       G
In the darkness of my light
                    G
I see it many times
                           C
Yes I'm sure it shines in you

[Outro]
C Em {or Riff} (x4)
end with C
Suggest correction
Creating personal tab
Creating personal tab
You can edit any tab online and save it as your Personal.

You can edit, replace or remove any tab part or add personal notes – all changes will be seen only by you.

Personal tabs can be accessed anytime from any device, even offline.
Learn more »
Give kudos to tab author, rate the tab!
1 2 3 4 5
comments
print report bad tab
1 comment total.
0 reply
remdyx 740 Feb 18, 2017 03:14 AM

great version actually

guest
You may want to rate the tab now too:
select rating
Wanna post a correction for this tab? Suggest correction