Oops, an error
Loading. Please wait.

Going To Hell Tab

version 1
version 1

Intro

Whole song

3,074 views 3 this week
no commentswrite comment
1 2 3 4 5
please rate
add to favorites
launch autoscroll
font size
0
reset
how to read this tab
guitar tuner
Tab Pro tools
  • play this tab
  • loop segment
  • change instrument
  • show fretboard
  • metronome
Autoscroll
slow
fast
+/-
esc
set tempo
stop
Contributor
Difficulty
novice
-------------------------------------------------------------------------------
Going to Hell - The Brian Jonestown Massacre
-------------------------------------------------------------------------------
Tabbed by: Joe O
Tuning: EADGBe

Might not be perfect, work in progress.

e|-------------------------------------------------------------------------|
B|-------------------------------------------------------------------------|
G|-------------------------------------------------------------------------|
D|-------------------------------------------------------------------------|
A|-------------------------------------------------------------------------|
E|---3/5—5h9--5--5--5-3—-3/5—5h9--5--5--5-3--------------------------------|



e|-------------------------------------------------------------------------|
B|-------------------------------------------------------------------------|
G|-------------------------------------------------------------------------|
D|---7-5---5h7--7—7/9--7--7--7-5--7-5---5h7--7—7/9--7--7--7-5--------------|
A|-------7----------------------------7------------------------------------|
E|-------------------------------------------------------------------------|



e|-------------------------------------------------------------------------|
B|-------------------------------------------------------------------------|
G|-------------------------------------------------------------------------|
D|-----------------------------------------------7-7-5---5h7---------------|
A|---7--7—7/9--7--7/9--7--7--7-5--5/7--7--7/9--7--------7------------------|
E|-------------------------------------------------------------------------|


Chord Progression                
     A    D    G    D
e|---0----2----3----2------------------------------------------------------|
B|---2----3----0----3------------------------------------------------------|
G|---2----2----0----2------------------------------------------------------|
D|---2----0----0----0------------------------------------------------------|
A|---0----X----2----X------------------------------------------------------|
E|---0----X----3----X------------------------------------------------------|


Other Progression
     A    G    D    G  D
e|---0----3----2----3--2---------------------------------------------------|
B|---2----0----3----0--3---------------------------------------------------|
G|---2----0----2----0--2---------------------------------------------------|
D|---2----0----0----0--0---------------------------------------------------|
A|---0----2----X----2--X---------------------------------------------------|
E|---0----3----X----3--x---------------------------------------------------|





| /  slide up
| \  slide down
| h  hammer-on
| p  pull-off
| ~  vibrato
| +  harmonic
| x  Mute note
===============================================================================


comments
We did not receive enough feedback on this tab! Please rate:
print report bad tab
1 2 3 4 5
I want to post or [tab]
guest
You may want to rate the tab now too:
select rating
Please do not post tabs as comments. Select "correction" instead!