Oops, an error
Loading. Please wait.

Going To Hell Tab

version 1
version 1

Intro

Whole song

2,035 views 12 this week
no commentswrite comment
1 2 3 4 5
excellent!
x 7
add to favorites
launch autoscroll
font size
0
reset
how to read this tab
guitar tuner
Tab Pro tools
  • play this tab
  • loop segment
  • change instrument
  • show fretboard
  • metronome
Autoscroll
slow
fast
+/-
esc
set tempo
stop
Contributor
Difficulty
novice
Brian Jonestown Massacre - Going To Hell

THE BRIAN JONESTOWN MASSACRE - GOING TO HELL

INTRO

Guitar 1
E|----------------------------------------------------------|
B|----------------------------------------------------------|
G|----------------------------------------------------------|
D|----------------------------------------------------------|
A|----------------------------------------------------------|
E|--3/5-5--5-5-5--5/7-5--5--5-3--3/5-5--5-5-5-5/7-5--5--5-3-|

E|------------------------------------------------------| 
B|------------------------------------------------------|
G|------------------------------------------------------|
D|--7-5---5/7-7-7/9--7-7-7-5--7-5---5/7-7-7/9--7-7-7-5--|
A|------7-------------------------7---------------------|
E|------------------------------------------------------|

E|----------------------------------------------------------| 
B|----------------------------------------------------------| 
G|----------------------------------------------------------| 
D|----------------------------------------7-7-5-----5/7-----| 
A|--7-7-7/9-7/9-7-7-7-5-7-7-7/9-7-----------7---------------| 
E|----------------------------------------------------------|


Guitar 2 (played 6 times during the intro and then through the verse)
  
   A      D     G          D  
E|-0--0-x-2-2-x-3--3-3-x-x-2--2-2-x-|
B|-2--2-x-3-3-x-0--0-0-x-x-3--3-3-x-|
G|-2--2-x-2-2-x-0--0-0-x-x-2--2-2-x-|
D|-2--2-x-0-0-x-0--0-0-x-x-0--0-0-x-| 
A|-0--0-x-------2--2-2-x-x----------|
E|--------------3--3-3-x-x----------|

        

Verse   A         D         G      D
        I've been out on my own
        A         D              G      D
        I've been getting what's mine
        A           D             G        D
        I watch you grab what you can you're crazy
        A             D          G      D
        'Cause you're all out of time
 

Chorus  

   A           G                 D           G          D
E|-0--0--0-0-x-3--3-3--3-3-3-x-x-2--2--2-2-x-3--3-3-x-x-2-2-2-x-|
B|-2--2--2-2-x-0--0-0--0-0-0-x-x-3--3--3-3-x-0--0-0-x-x-3-3-3-x-|
G|-2--2--2-2-x-0--0-0--0-0-0-x-x-2--2--2-2-x-0--0-0-x-x-2-2-2-x-|
D|-2--2--2-2-x-0--0-0--0-0-0-x-x-0--0--0-0-x-0--0-0-x-x-0-0-0-x-|
A|-0--0--0-0-x-2--2-2--2-2-2-x-x-------------2--2-2-x-x---------|
E|-------------3--3-3--3-3-3-x-x-------------3--3-3-x-x---------|

        A                 G
        But you live in a dream
                           D
        And it's not going well
                           G
        There's no one who cares
                    D         A
        'Cause your living in hell

Guitar 1

E|-------------------------------------------------|
B|-------------------------------------------------|
G|-------------------------------------------------|
D|-------------------------------------7-7-5---5/7-|
A|-------------------------------------------7-----|
E|--3/5-5--5-5-5--5/7-5--5--5-3--3/5-5-------------|

Guitar 2

   A      D     G          D
E|-0--0-x-2-2-x-3--3-3-x-x-2--2-2-x-|
B|-2--2-x-3-3-x-0--0-0-x-x-3--3-3-x-|
G|-2--2-x-2-2-x-0--0-0-x-x-2--2-2-x-|
D|-2--2-x-0-0-x-0--0-0-x-x-0--0-0-x-|   x2
A|-0--0-x-------2--2-2-x-x----------|
E|--------------3--3-3-x-x----------|


Verse   A         D                G      D      
        Well they said you've been good
        A         D                G      D
        And some say you've been bad
        A         D                G      D
        I like to laugh when your happy baby
        A           D             G      D
        You make me cry when your sad


Chorus  A           G
        I live in a dream
                                D
        But you're living in hell
                                G
        And there is nothing to do
                          D           A   A D G D
        'Cause I know it too well
        G            D
        I know it too well


Solo    

Guitar 1
E|----------------------------------------------------------|
B|----------------------------------------------------------|
G|----------------------------------------------------------|
D|----------------------------------------------------------|
A|----------------------------------------------------------|
E|--3/5-5--5-5-5--5/7-5--5--5-3--3/5-5--5-5-5-5/7-5--5--5-3-|

E|------------------------------------------------------| 
B|------------------------------------------------------|
G|------------------------------------------------------|
D|--7-5---5/7-7-7/9--7-7-7-5--7-5---5/7-7-7/9--7-7-7-5--|
A|------7-------------------------7---------------------|
E|------------------------------------------------------|

E|----------------------------------------------------------| 
B|----------------------------------------------------------| 
G|----------------------------------------------------------| 
D|----------------------------------------7-7-5-----5/7-----| 
A|--7-7-7/9-7/9-7-7-7-5-7-7-7/9-7-----------7---------------| 
E|----------------------------------------------------------|

Guitar 2

   A      D     G          D  
E|-0--0-x-2-2-x-3--3-3-x-x-2--2-2-x-|
B|-2--2-x-3-3-x-0--0-0-x-x-3--3-3-x-|
G|-2--2-x-2-2-x-0--0-0-x-x-2--2-2-x-|
D|-2--2-x-0-0-x-0--0-0-x-x-0--0-0-x-|  x6
A|-0--0-x-------2--2-2-x-x----------|
E|--------------3--3-3-x-x----------|

Then
Both Guitars 
  
   A           G                 D           G          D
E|-0--0--0-0-x-3--3-3--3-3-3-x-x-2--2--2-2-x-3--3-3-x-x-2-2-2-x-|
B|-2--2--2-2-x-0--0-0--0-0-0-x-x-3--3--3-3-x-0--0-0-x-x-3-3-3-x-|
G|-2--2--2-2-x-0--0-0--0-0-0-x-x-2--2--2-2-x-0--0-0-x-x-2-2-2-x-|
D|-2--2--2-2-x-0--0-0--0-0-0-x-x-0--0--0-0-x-0--0-0-x-x-0-0-0-x-|
A|-0--0--0-0-x-2--2-2--2-2-2-x-x-------------2--2-2-x-x---------|
E|-------------3--3-3--3-3-3-x-x-------------3--3-3-x-x---------|

Guitar 1

E|-------------------------------|          |-------------------------|
B|-------------------------------|          |-------------------------|
G|-------------------------------|          |-------------------------|
D|-------------------------------| x3 then  |-------7-5---5-7--7-7-7--|
A|-------------------------------|          |-----------7-------------|
E|--3/5-5--5-5-5--5/7-5--5--5-3--|          |-3/5-5-------------------|


Guitar 2

   A      D     G          D
E|-0--0-x-2-2-x-3--3-3-x-x-2--2-2-x-|
B|-2--2-x-3-3-x-0--0-0-x-x-3--3-3-x-|
G|-2--2-x-2-2-x-0--0-0-x-x-2--2-2-x-|
D|-2--2-x-0-0-x-0--0-0-x-x-0--0-0-x-|   x4
A|-0--0-x-------2--2-2-x-x----------|
E|--------------3--3-3-x-x----------|


Verse   A         D         G      D
        I've been out on my own
        A         D          G      D
        I've been doing real fine
        A           D             G        D
        I watch to get what you can you're crazy
        A             D          G      D
        Seems like you're all out of time


Chorus  A                    G
        Well you're living a dream
                              D
        And it's dragging you down
                              G
        And there's no one to help
                       D       A     D G D
        'Cause there's no one around
                       A     D G D
        There's no one around
                       A     D G D
        There's no one around
                       A     D G D
        There's no one around
                       A     D G D
        There's no one around
                       A     D G D
        There's no one around
                       A     D G D
        There's no one around
                       A     D G D A
        There's no one around


Guitar 1 (Repeated from the first "There's no one around" To the very end)

E|------------------------------|
B|------------------------------|
G|------------------------------|
D|------------------------------|
A|------------------------------|
E|--3/5-5--5-5-5--5/7-5--5--5-3-|

/ - Slide
x - Muted note
comments
print report bad tab
I want to post or [tab]
guest
You may want to rate the tab now too:
select rating
Please do not post tabs as comments. Select "correction" instead!