Oops, an error
Loading. Please wait.

Malela Bass Tab

3,090 views 12 this week
no commentswrite comment
1 2 3 4 5
excellent!
x 1
add to favorites
launch autoscroll
font size
0
reset
guitar tuner
Tab Pro tools
  • play this tab
  • loop segment
  • change instrument
  • show fretboard
  • metronome
Autoscroll
slow
fast
+/-
esc
set tempo
stop
Contributor
Difficulty
novice
Malela Bass Tab

Verse:
-------------------------------------------------|
---2h4----2h4----2h4----2h4----2h4----2h4--------|  x2
-2------2------2------2------2------2------5-5-4-|
-------------------------------------------------|

-------------------------------------|
-------------------------------------|
-2-2-4-5-5-4-2-2-0--5---5---5---5----|
----------------------5---5---5---5--|


Chorus:
---------------------------------------------|
---2h4----2h4----2h4----2h4------------------|
-2------2------2------2------5---5---5---5---|
-------------------------------5---5---5---5-|

Break:
----------------------------------------------|
---2h4----2h4----2h4----2h4--5---5---5---5-5--|
-2------2------2------2--------5---5---5--5-5-|
----------------------------------------------|

----------------------------------------------|
---2h4----2h4----2h4----2h4-------------------|
-2------2------2------2------5---5---5---5-5--|
-------------------------------5---5---5--5-5-|

Structure:
Verse x 3
Chorus x 1
Verse x 1
Break x 1
Verse x 1
Chorus to Fade into Salaam
comments
We did not receive enough feedback on this tab! Please rate:
print report bad tab
1 2 3 4 5
I want to post or [tab]
guest
You may want to rate the tab now too:
select rating
Please do not post tabs as comments. Select "correction" instead!