Oops, an error
Loading. Please wait.

Mary Please Tab

5,635 views 30 this week
2 commentsread comments
1 2 3 4 5
excellent!
x 11
add to favorites
launch autoscroll
font size
0
reset
how to read this tab
guitar tuner
Tab Pro tools
  • play this tab
  • loop segment
  • change instrument
  • show fretboard
  • metronome
×
Best way to learn
"Mary Please"
Autoscroll
slow
fast
+/-
esc
set tempo
stop
Contributor
Difficulty
novice
Brian Jonestown Massacre - Mary Please

Chords - (E  A  D  G  B  E ) 
        D(10 12 12 11 10 10)
        C(8  10 10 9  8  8 )
        F(1  3  3  2  1  1 )
        G(3  5  5  4  3  3 )
    Gsus4(3  5  5  5  3  3 ) 
        A(5  7  7  6  5  5 ) 

Strumming Patter Verse: 
D~  C~  F--F--F-F-F-F-F-F-F--G--G-G-Gsus4-G-G--G-G-G-|

Strumming pattern Chorus:  
D--D--D-D-D-C-C--C-C-C--F--F--F-F-C--C--G--G-G-Gsus4-G-G--G-G-G---G--G-G-G-Gsus4-G-
G--Gsus4-Gsus4-Gsus4-Gsus4--|

1st Chorus Ending: 
D--D--D-D-D-C-C--C-C-C--F--F--F-F-C--C--G--G-G-Gsus4-G-G--G-G-G-G--A-A-A--A--A

Intro

E|-10-10-x--x-x-x-x-x-x--x-x-|
B|-10-10-x--x-x-x-x-x-x--x-x-|
G|-11-11-x--x-x-x-x-x-x--x-x-|
D|-12-12-x--x-x-x-x-x-x--x-x-|
A|-12-12-x--x-x-x-x-x-x--x-x-| x4
E|-10-10-x--x-x-x-x-x-x--x-x-|

Then

Solo (While other guitar plays Chorus)

E|-------------------------------------------------------------------------|
B|-------------------------------------------------------------------------|
G|----10-12^-12^-12^-10----------10----10-12^-12^-12^-10-------------------|
D|-12-------------------12-10-12----12-------------------12-10-12----------|
A|---------------------------------------------------------------10^-10^-8-|
E|-------------------------------------------------------------------------|

E|-------------------------------------|
B|-------------------------------------|
G|-------------------------------------|
D|-------------------------------------|
A|--------------------8----8-10^-10^-8-|
E|-10-8h10-10-10-8-10---10-------------|

E|----------------------------------------10-------13^-13^-13^-13^-13^-10--10|
B|-------------------------------10-13-10---10-13------------------------13--|
G|----10-12^-12^-12^-10------------------------------------------------------|
D|-12-------------------12-10-12---------------------------------------------|
A|---------------------------------------------------------------------------|
E|---------------------------------------------------------------------------|

E|-16^-16^-16^-16-13^------------|
B|---------------------15-13-15--|
G|-------------------------------|
D|-------------------------------|
A|-------------------------------|
E|-------------------------------|

D                           
   I know it seems insane   
C                                 F      G   Gsus4  G
   I'll never feel ashamed of you

D                          
   I'm tired of silly games
C                                 F       G   Gsus4  G
   I cannot waste away the truth

D   
   I lay in bed all the day
C                                     F       G    Gsus4  G
   There's nothing more to say to you

D   
   If I look for change
C                               F                 G     Gsus4  G
   I know it takes a day or two       Away from you

D     C       F     C        G    Gsus4  G     G  Gsus4  G
Sadly I remain in love with you

D        C        F         C           G    Gsus4  G     A
All my tears and fears I gained from you


D
  I will not waste away,
C                           F        G     Gsus4    G
  For even half a day or two

D  
  And if you run away
C                             F                    G      Gsus4   G
  There's no lookin after you      And that's the truth

D     C       F      C         G    Gsus4  G     G  Gsus4  G  Gsus4
Sadly I remain in love with you

D      C         F      C      G    Gsus4  G    G        Gsus4  G  Gsus4    
I'll do anything you ask me to,                  Stay true


Solo (While other guitar plays chorus)

E|-------------------------------------------------------------------------|
B|-------------------------------------------------------------------------|
G|----10-12^-12^-12^-10----------10----10-12^-12^-12^-10-------------------|
D|-12-------------------12-10-12----12-------------------12-10-12----------|
A|---------------------------------------------------------------10^-10^-8-|
E|-------------------------------------------------------------------------|

E|-------------------------------------|
B|-------------------------------------|
G|-------------------------------------|
D|-------------------------------------|
A|--------------------8----8-10^-10^-8-|
E|-10-8h10-10-10-8-10---10-------------|

E|----------------------------------------10-------13^-13^-13^-13^-13^-10--10|
B|-------------------------------10-13-10---10-13------------------------13--|
G|----10-12^-12^-12^-10------------------------------------------------------|
D|-12-------------------12-10-12---------------------------------------------|
A|---------------------------------------------------------------------------|
E|---------------------------------------------------------------------------|

E|-16^-16^-16^-16-13^------------|
B|---------------------15-13-15--|
G|-------------------------------|
D|-------------------------------|
A|-------------------------------|
E|-------------------------------|


Chord part

E|-3~--1~--|
B|-3~--1~--|
G|-4~--2~--|
D|-5~--3~--|
A|-5~--3~--|
E|-3~--1~--|

Solo (While other guitar plays chorus)

E|-------------------------------------------------------------------------|
B|-------------------------------------------------------------------------|
G|----10-12^-12^-12^-10----------10----10-12^-12^-12^-10-------------------|
D|-12-------------------12-10-12----12-------------------12-10-12----------|
A|---------------------------------------------------------------10^-10^-8-|
E|-------------------------------------------------------------------------|

E|-------------------------------------|
B|-------------------------------------|
G|-------------------------------------|
D|-------------------------------------|
A|--------------------8----8-10^-10^-8-|
E|-10-8h10-10-10-8-10---10-------------|

E|----------------------------------------10-------13^-13^-13^-13^-13^-10--10|
B|-------------------------------10-13-10---10-13------------------------13--|
G|----10-12^-12^-12^-10------------------------------------------------------|
D|-12-------------------12-10-12---------------------------------------------|
A|---------------------------------------------------------------------------|
E|---------------------------------------------------------------------------|

E|-16^-16^-16^-16-13^------------|
B|---------------------15-13-15--|
G|-------------------------------|
D|-------------------------------|
A|-------------------------------|
E|-------------------------------|


Ending Part of solo 

E|-------------------------------------------------------------------------|
B|-------------------------------------------------------------------------|
G|----10-12^-12^-12^-10----------10----10-12^-12^-12^-10-------------------|
D|-12-------------------12-10-12----12-------------------12-10-12----------|
A|---------------------------------------------------------------10^-10^-8-|
E|-------------------------------------------------------------------------|

E|-------------------------------------|
B|-------------------------------------|
G|-------------------------------------|
D|-------------------------------------|
A|--------------------8----8-10^-10^-8-|
E|-10-8h10-10-10-8-10---10-------------|
    
      Notice the change here 
E|----------------------------------------10-------13^-13^-13^-13^-13^-10-10-10|
B|-------------------------------10-13-10---10-13------------------------------|
G|----10-12-12^-12^-12^-12-----------------------------------------------------|
D|-12--------------------------------------------------------------------------|
A|-----------------------------------------------------------------------------|
E|-----------------------------------------------------------------------------|

E|-16^-16^-16^-16-13^-------------------------|
B|---------------------15-13-15--15-15-13--12~|
G|--------------------------------------------|
D|--------------------------------------------|
A|--------------------------------------------|
E|--------------------------------------------|

Happy Playing.

^ - Bend
h - Hammer
comments
print report bad tab
2 comments total.
0 reply
m-flouze wrote on July 9 2012, 10:10 am

Your tab is absolutely amazing, but I think it's an A :
5 7 7 6 5 5
Instead of a C#.

Great job anyway !

0 reply
jarokkari wrote on August 8 2012, 06:27 am

Ah yeh, no idea where i got the C# from, thanks for pointing that out. I shall change it asap.

I want to post or [tab]
guest
You may want to rate the tab now too:
select rating
Please do not post tabs as comments. Select "correction" instead!